Divokej Bill: Akordy k piesni Vokna

Upraviť pieseň
Interpret: Divokej Bill


Divokej Bill - Vokna (akordy)

Transpozícia ( -2 -1 0 +1 +2 )



Intro

e ---------------------------------------------------
H ---5--8--5--8--7--------7-7---5--8--5--8--7--(7)---
G ------------------7--7-----------------------------
D ---------------------------------------------------
A ---------------------------------------------------
E ---------------------------------------------------



AmiVidim tvoje voGkna a to je nejsnadnější Emicíl Hmi
Tak vzbudim celej Emidům
a z nuly Cna sto je totální Gzrychlení
naházet kameDní do voken souseAmidům Hmi

a zas to bude Emidobrý Hmi
až navážeme Emispojení Hmi
přes mikročipy Emiv páteřích Hmi
zdálo se mi Emivo dvéřích Hmi
za kterejma to bude Emidobrý, báječný Hmi

ale nikdo mi to Eminevěří,
neHmimám Ckliku a pak Amitvoje voGkna
a to je {(D)}nesnadnější Emicíl
Tak vzbudim celej Cdům
a z nuly Gna sto je totální zrychlení
naházet kameDní do voken souseAmidům Hmi

a zas to bude Emidobrý Hmi
až navážeme Cspojení Emi
přes mikročipy Cv páteřích Hmi
zdálo se mi Cvo dvéřích Hmi
za kterejma to bude Emidobrý Hmi

ale nikdo mi to Eminevěří,
neHmimám Ckliku a tak Amifuck of všichGni
a to je {(D)}nejsnadnější Emicíl
Tak vzbudim celej Cdům
a z nuly Gna sto je totální zrychlení
naházet kameDní do voken souseAmidům

solo: Ami, C, G, Ami (6x)


e ------------------------------------------------
H ----------------------1-1-----------------------
G ----0-2-2-2----0-2-2------2-0-0-0----0-2-2-22---
D --2----------2---------------------2------------
A ------------------------------------------------
E ------------------------------------------------



GAť to stihnem,
AmiVidim tvoje voGkna a to je nejsnadnější Emicíl Hmi
Tak vzbudim celej Emidům
a z nuly Cna sto je totální Gzrychlení
naházet kameDní do voken souseAmidům Hmi

a zas to bude Emidobrý Hmi
až navážeme Cspojení Emi
přes mikročipy Cv páteřích Hmi
zdálo se mi Cvo dvéřích Hmi
za kterejma to bude Emidobrý…. je hřích je nevodevřít


Ďalšie piesne z albumu

Kolem tebe

Divokej Bill

Kvůli holkám

Divokej Bill

Armáda

Divokej Bill

Pocit

Divokej Bill

Znamení

Divokej Bill

Malování

Divokej Bill

Na tvý louce zelený

Divokej Bill

Bagdád

Divokej Bill

Kotle

Divokej Bill

Mrazík

Divokej Bill

Novinky v katalógu

Najpopulárnejšie piesne interpreta

Malování

Divokej Bill

Pocit

Divokej Bill

Bohužel

Divokej Bill

Plakala

Divokej Bill

Alkohol

Divokej Bill

Na tvý louce zelený

Divokej Bill

Dávno

Divokej Bill

Čmelák

Divokej Bill

DIVOKEJ BILL

Divokej Bill

Akordy

C C# D D# Es E F F# G G# As A A# B H 

Najčítanejšie