Kabát: Akordy k piesni GO SATANE GO

Upraviť pieseň
Interpret: Kabát


Kabát - GO SATANE GO (akordy)

Transpozícia ( -2 -1 0 +1 +2 )


intro = ke sloce
AAAAA AAAAA FFFFF FFFFF AAAAA AAAAA FFFFF FFFFF

Tak me tu mate deti zas
ja v jadru nejsem chlapek zlej
jen nakousnout a ohlodat
za to ja sem placenej

Mam rad biftek krvavej
sem extra zlodej radosti
já ... strejda rohatej
ale jinak dodrak od kosti

refren
Dgo satane Dgo G
Djak pisknes D tak tancujGou.

AAAAA FFFFF AAAAA FFFFF

Tak me tu mate deti zas
ty gaunery ja mam zapsany
kdo nebude sekat latinu
ten ma to u me schovany

refren ...

AAAAA BBBBB HHHHH CCCCC
Sem ve vanocnim cukrovi sem ve sklepe sem v podkrovi
sem vhodinach sm v radiu nekdy vhospode se svama napiju
Mejsem v kostele,ale na blizku kdyz usinas sem u tvi postele
sem v extazi cestou do raje sem ve vine a to pravda je !

Refren..


tabs
INTRO 1,gtr
e----------------------------------------------------------
h----------------------------------------------------------
g------------------------1010101010-1010101010-------------
D------------------------1010101010-1010101010-------------
A--7-7-7-7-7--7-7-7-7-7---8-8-8-8-8--8-8-8-8-8-------------
E--5-5-5-5-5--5-5-5-5-5------------------------------------

INTRO 2.gtr
e-------------
h------------------
g------------------
D----------------------------
A--7-7-7-7-7--7-7-7-7-7-----------------------------------
E--5-5-5-5-5--5-5-5-5-5---4-3-1-4-3-1-3-1--4-3-1-4-3-1-3-1--


e--------------------------
h-----------------------------------
g-------------------------------------------
D----------------------------------------------------------
A--7-7-7-7-7--7-7-7-7-7------------------------------------
E--5-5-5-5-5--5-5-5-5-5--1-4-3-1-4b--1-4-3-1-4b------------


b pritah


Ďalšie piesne z albumu

Novinky v katalógu

Najpopulárnejšie piesne interpreta

Pohoda

Kabát

Malá dáma

Kabát

COLORADO

Kabát

Bára

Kabát

Kabát

Kabát

Burlaci

Kabát

Šaman

Kabát

Corrida

Kabát

Akordy

C C# D D# Es E F F# G G# As A A# B H 

Najčítanejšie