Hlavná stránka

>

Katalóg

>

Akordy

>

Filmová a Muzikálová hudba

>

Los Lobos (z filmu Desperado)

Filmová a Muzikálová hudba - Los Lobos (z filmu Desperado)

Transpozícia ( -2 -1 0 1 2 )

Intro:
e----------------------------------------------------------------------------------------------------------------------
B----------------------------------------------------------------------------------------------------------------------
G-------------------------------------------------------0--0---0---0--0--0----5---0---0--------2------------------
D----------------------------------------------------4----4---5---4--4--4----4---4---4----2---4------------------
A-----2--3--0--2------0-------------------------5------5---5---5-----------5---5---------------------------------
E--------------------3------2--3--0----------0-----------------------------------------------------------------------

e---------------------------------------------------------------------------------------------------0-------------------
B-------------------------------------------------------------------------------------------------0---------------------
G----------2----2---2---2---4---2---5----5---4---4---2---2---0---0-----------------------0-----------------------
D-----4--------4---4---4---4---4---5----5------5--------0-------2-----4---1---4--------2-------------------------
A-------------------------------------------------------------------------------------------2---------------------------
E------------------------------------------------------------------------------------------0-----------------------------

E-------7-7---7-7-8-7-7-7-8-7-7--------|------5-5-5-5-7-5-5-5-7-5-5----------
H-----8-8-8---8-8-8-8-8-8-8-8-8-8-10---|------7-7-7-7-7-7-7-7-7-7-7-7-8------
G---9---------------------------9-11---|----7-----------------------8-9------
D-9------------------------------------|--7----------------------------------
A--------------------------------------|-------------------------------------
E--------------------------------------|-------------------------------------




EmiSoy un hombre muy honrado, H Que me gusta lo mejor
A mujeres no me faltan, Ni elEmi dinero, ni el amor.

EmiIneteando en mi caballo, HPor la sierra yo me voy
Las estrellas y la luna, Ellas meEmidicen donde voy.

Chorus:
AmiAy, ay, aEmiy, ay
HAy, ay, miEmi amor
AmiAy, mi moEmirena
HDe mi corEmiazon

(zopakuj intro.)

EmiMe gusta tocar guitarra, me Hgusta cantar el sol
Mariachi me acompana, cuandoEmicanto my cancion.

EmiMe gusta tomar mis copas, aguardHientes lo mejor
Tanbien el tequilla blanca, conEmicu sal le da sabor.
Chorus:
AmiAy, ay, aEmiy, ay
HAy, ay, miEmi amor
AmiAy, mi moEmirena
HDe mi corEmiazon

Sólo: EM-H-EM-H-EM-H-EM-H-EM-H-EM (1.gitara)


Sólo (2.gitara)


N.C.
Me gusta tocar guitarra, me gusta cantar el sol
Mariachi me acompana, quando canto my cancion.

EmiMe gusta tomar mis copas, aguardHientes lo mejor
Tanbien el tequilla blanca, conEmicu sal le da sabor.

Chorus:
AmiAy, ay, aEmiy, ay
HAy, ay, miEmi amor
AmiAy, mi moEmirena
HDe mi corEmiazon
AmiAy, ay, aEmiy, ay
HAy, ay, miEmi amor
AmiAy, mi moEmirena
HDe mi corEmiazon

Novinky v katalógu

Akordy

C C# D D# Es E F F# G G# As A A# B H 

Najčítanejšie