Zóna A: Akordy k piesni Nikto nevie jak to dopadne

Upraviť pieseň
Interpret: Zóna A


Zóna A - Nikto nevie jak to dopadne (akordy)

Transpozícia ( -2 -1 0 +1 +2 )


HmiGHmiGHmiGF#

Ako sa to Hmiskončí? G
na čo je to Hmidobré? G
má to dáky Hmivýznam?
neGvie niF#kto...

Príliš vela ľudí
báda, skúma, hladá
zastavte ten vývoj
dáko prosím

®: ADNikto nevie Hmičo sa deje
Gčo sa to robí GA
Dnikto nevie Hmičo sa deje
Gnikto netuší GA
Dnikto nevie Hmičo sa deje
Gčo sa prihodí GA
Dnikto nevie Hmijak to dopaGdne
F#G

Ako sa to skončí?
na čo je to dobré?
máme ešte šancu
možno malú

Celý svet sa rúti
do neznáma rýchlo
zatiahnite brzdu
zastavte ho!

®:
F#GF#GF#GA



Hmi Emi Hmi Emi
E|-2----|-7----|-2----|-7----|
H|--3---|--8---|--3---|--8---|
G|---4--|---9--|---4--|---9--|
D|------|------|------|------|
A|------|------|------|------|
E|------|------|------|------|

Hmi Emi G A
E|-2----|-7----|------|-----||
H|--3---|--8---|-3----|-5---||
G|---4--|---9--|--4---|--6--||
D|------|------|---5--|---7-||
A|------|------|------|-----||
E|------|------|------|-----||


®:

Ďalšie piesne z albumu

Mám zostať?

Zóna A

Sedem detí

Zóna A

Mám rád

Zóna A

Génius

Zóna A

Lucia

Zóna A

Na Havaj

Zóna A

Hore

Zóna A

Možno

Zóna A

V zajatí žien

Zóna A

Chcem byť

Zóna A

Niečo nové

Zóna A

Novinky v katalógu

Najpopulárnejšie piesne interpreta

Akordy

C C# D D# Es E F F# G G# As A A# B H 

Najčítanejšie