Depeche Mode: Akordy k piesni But Not Tonight

Upraviť pieseň
Interpret: Depeche Mode

Dĺžka piesne: 04:15



Depeche Mode - But Not Tonight (akordy)

Transpozícia ( -2 -1 0 +1 +2 )


E-----0---------0|----0----------|----0---------0|--0-0---0-0---0-|
B---------4-4-2--|--------0-0---2|--------4-4-2--|----------------|
G---1---1--------|--1---1-----1--|--1---1--------|------2-----2---|
D-2--------------|---------------|---------------|----------------|
A----------------|---------------|4--------------|0---------------|
E----------------|4--------------|---------------|----------------|
E Oh God, it's raining
But As I'm not complaining
It's C#M filling me up
With new A life
The E stars in the As sky
Bring E tears to my As eyes
They're A lighting my way
Tonight
And I B haven't felt so A alive
In E years
E Just for a day
On a As day like today
I'll get C#M away from
This constant debauA chery
The E wind in my As hair
Makes E me so aAs ware
How A good it is to live
Tonight
And I B haven't felt so A alive
In E years
The B mo-oo-ooAs -oon
Is shining in the C#M sky A
ReB minding me As
Of so many other C#M nights A
But they're not like tonight E
the following as above
Oh God, it's raining
And I'm not containing
My pleasure at being
So wet
Here on my own
All on my own
How good it feels to be alone
Tonight
And I haven't felt so alive
In years
The moon
Is shining in the sky
Reminding me
Of so many other nights
When my eyes have been so red
I've been mistaken for dead
But not tonight
---------------------------------------
From: Max Stepanov, Russia, St.Petersburg
e-mail: profi@dux.ru
---------------------------------------

Ďalšie piesne z albumu

It Doesn't Matter

Depeche Mode

Black Celebration

Depeche Mode

A Question of Lust

Depeche Mode

Sometimes

Depeche Mode

Stripped

Depeche Mode

Here Is the House

Depeche Mode

World Full of Nothing

Depeche Mode

Dressed in Black

Depeche Mode

New Dress

Depeche Mode

Fly On The Windscreen

Depeche Mode

A Question Time

Depeche Mode

Novinky v katalógu

Najpopulárnejšie piesne interpreta

Personal Jesus

Depeche Mode

Heaven

Depeche Mode

Enjoy the Silence

Depeche Mode

A Little Piece

Depeche Mode

Strangelove

Depeche Mode

Somebody

Depeche Mode

A Question of Time

Depeche Mode

A Question of Lust

Depeche Mode

Akordy

C C# D D# Es E F F# G G# As A A# B H 

Najčítanejšie