Dream Theater: Akordy k piesni Dance of eternity

Upraviť pieseň
Interpret: Dream Theater


Dream Theater - Dance of eternity (akordy)

Transpozícia ( -2 -1 0 +1 +2 )


dance of eternity


dream theater
petrucci lead
le premier qui pogne ca meriterais un gros joint



S S S S S S S S S S S S S S S S
E||---------------------------------12------|
B||-----------------------------------------|
G||-----------9-10-9----9------9-10----9-10-|
D||------9-10--------10---9-10--------------|
A||--7-8------------------------------------|
E||-----------------------------------------|


S S S S S S S S S S S S S S S S
-------------8-10----------------------------|
----------12------13-12-13------12-----------|
-----9-10------------------10-9----9---------|
--12---------------------------------12-10-9-|
---------------------------------------------|
---------------------------------------------|


S S S S S S S S S S S S S S S S
------------------------------------8-10-|
---------------------------------12------|
-----------9-10-9----9------9-10---------|
------9-10--------10---9-10--------------|
--7-8------------------------------------|
-----------------------------------------|


S S S S S S S S S S S S S S S S
--13-8----12-8-------10-8---------------------|
-------12------12-10------12-10---------------|
--------------------------------12-10-12-9----|
-------------------------------------------12-|
----------------------------------------------|
----------------------------------------------|


S S S S S S S S S S S S S S S S
---------------------------------12------|
-----------------------------------------|
-----------9-10-9----9------9-10----9-10-|
------9-10--------10---9-10--------------|
--7-8------------------------------------|
-----------------------------------------|


S S S S S S S S S S S S S S S S
-----------10-12-13-12-10-12-------10------------|
--------10-------------------10------------------|
--10-12-------------------------12----12-10-9----|
----------------------------------------------12-|
-------------------------------------------------|
-------------------------------------------------|


S S S S S S S S S S S S S S S S
-------------8-10----------------------------|
----------12------13-12-13------12-----------|
-----9-10------------------10-9----9---------|
--12---------------------------------12-10-9-|
---------------------------------------------|
---------------------------------------------|


T T T T T T T T T T T T T T T T T T T T T T T T T T T T T T
------------------------------------------10-8-7-8-12-10-8-10-13-12-10-12-15-13-
--8-6-5-6-10-8-6-8-12-10-8-10-13-12-10-12---------------------------------------
--------------------------------------------------------------------------------
--------------------------------------------------------------------------------
--------------------------------------------------------------------------------
--------------------------------------------------------------------------------


|--3--| |--3-| |--3-| |--3--| |--3-| |--3--| |--3--| |-3-|
S S S S S S S S S S S S S S S S S S S S S S S S
--12---------------------------------------------10-12-------------|
-----12-10------------------------------------10-------12-10-------|
-----------12-10-9--------------------------9----------------9-----|
-------------------12-10-9----------------9--------------------9-7-|
---------------------------12-10-------12--------------------------|
---------------------------------13-12-----------------------------|


|-3-| |-3-| |-3-| |-3-| |--3-| |--3--| |--3-| |--3-|
S S S S S S S S S S S S S S S S S S S S S S S S
----------------------------------------12-----------------|
----------------------------------10-12----12-10-----------|
--12-9--------------------------9----------------9---------|
-------9-7-----------7-9-7-9-10--------------------10-9----|
-----------7-------7------------------------------------12-|
-------------7-5-7-----------------------------------------|


Q Q Q E S S S S E S S E Q E E E E Q Q E S S
------------------------|---------------------------|-------------------------|
------------------------|---------------------------|-------------------------|
------------------------|---------------------------|-------------------------|
--7-----------------7-7-|--L-7-7--L--------------7--|--L------------------7-7-|
--7-----------------7-7-|--L-7-7--L--------------7--|--L------------------7-7-|
--5-----------------5-5-|--L-5-5--L--------------5--|--L------------------5-5-|


S S E S S E Q E E E E Q Q E S S
---------------------------|-------------------------|
---------------------------|-------------------------|
---------------------------|-------------------------|
--L-7-7--L--------------7--|--L------------------7-7-|
--L-7-7--L--------------7--|--L------------------7-7-|
--L-5-5--L--------------5--|--L------------------5-5-|


S S E S S E Q E E E E Q Q E S S S S E S S E
---------------------------|-------------------------|----------------||
---------------------------|-------------------------|----------------||
---------------------------|-------------------------|----------------||
--L-7-7--L--------------7--|--L------------------7-7-|--L-7-7--L------||
--L-7-7--L--------------7--|--L------------------7-7-|--L-7-7--L------||
--L-5-5--L--------------5--|--L------------------5-5-|--L-5-5--L------||




Duration Legend
---------------
W - whole
H - half
Q - quarter
E - 8th
S - 16th
T - 32nd
X - 64th
. - note dotted
|-n-| - n-tuplets


Tablature Legend
----------------
L - tied note
x - dead note
g - grace note
(n) - ghost note
> - accentuded note
NH - natural harmonic
AH - artificial harmonic
TH - tapped harmonic
SH - semi harmonic
PH - pitch harmonic
h - hammer on
p - pull off
b - bend
br - bendRelease
pb - preBend
pbr - preBendRelease
brb - bendReleaseBend
\n/ - tremolo bar dip
\n - tremolo bar dive
-/n - tremolo bar Release up
/n\ - tremolo bar inverted dip
/n - tremolo bar return
-\n - tremolo bar Release down
S - shift slide
s - legato slide
/ - slide into from below or out of upwards
\ - slide into from above or out of downwards
~ - vibrato
W - wide vibrato
tr - trill
TP - tremolo picking
T - tapping
S - slap
P - pop
< - fade in
^ - brush up
v - brush down

Novinky v katalógu

Najpopulárnejšie piesne interpreta

I Walk Beside You

Dream Theater

A Change of Seasons

Dream Theater

Take Away My Pain

Dream Theater

Space-Dye Vest

Dream Theater

Hollow Years

Dream Theater

Surrounded

Dream Theater

Scene Nine: Finally Free

Dream Theater

6:00

Dream Theater

Anna Lee

Dream Theater

Akordy

C C# D D# Es E F F# G G# As A A# B H 

Najčítanejšie