Hex: Akordy k piesni Laila

Upraviť pieseň
Interpret: Hex


Hex - Laila (akordy)

Transpozícia ( -2 -1 0 +1 +2 )


Guitar 1.

e--------9------------7-----------2-----------2----- (3x)
h-----10---10-------8---8-------3---2-------3--3----
G---9---------9---7-------7---2-------2---2------2--
D-0-------------0-----------0-----------0-----------
A---------------------------------------------------
E---------------------------------------------------


then
Solo Guitar

I.part
h-7-7-7s5-3-2-----------
G-------------4-2-2s1p0-


II.part
h-7-7-7s5-8-7---
G-------------7-

1.DPreletím nad vodou, Acelý svet Gza tebou, zas Dbežíš.
Prázdny byt ma osloví, tuším už nie sme my,
Keď Emi v rukách držím čudný list,
vraj G inou cestou musím ísť.

h------------------------------8-7---
G----------------------------------7-

2. Hlbokou oblohou, horu som preniesol, za tebou.
Pamätáš perutí, čas s tebou v nás nič nezmení.
Keď s polnocou si šepkala, jak v rukách tvoje srdce mám
DAEmiG

(Laila,laila...)

®: Tak Dzlomený a Astudený, kráčam Eminocou sám
a Gnič už nie je Dpodstatné,
keď Avšetko spí, len Eminebesia sa Gotvárajú,
v Ddaždových Aprílivoch som EmistratenýG.
solo - intro

1.
2.
®:

Keď s polnocou si šepkala, že v rukách tvoje srdce mám.

solo: DAEmiG (4x)

®:

Keď s polnocou si šepkala, že v rukách tvoje srdce mám.

Outro (lire intro)

Ďalšie piesne z albumu

Novinky v katalógu

Najpopulárnejšie piesne interpreta

Akordy

C C# D D# Es E F F# G G# As A A# B H 

Najčítanejšie