Kabát: Akordy k piesni Buldozerem

Upraviť pieseň
Interpret: Kabát


Kabát - Buldozerem (akordy)

Transpozícia ( -2 -1 0 +1 +2 )


2x {Intro}

Cmi
e |-----------3--4--|--4--3-----|--4--3-----|--4--3-----|
h |--1--4--1--------|--------4--|--------4--|--------4--|
G |-----------------|-----------|-----------|-----------|
D |-----------------|-----------|-----------|-----------|
A |-----------------|-----------|-----------|-----------|
E |-----------------|-----------|-----------|-----------|



2x {Intro s doprovodem}


Cmimohl bejt bůh ví čim,
tak třeba: president,
ministr, generál, dirigent
a Fnebo ještě, co já vim,
trochu mě Cminičí,
že nejsem Asničim.

Cmichtěl bejt velkej pán,
barevnou kravatu nakřivo,
slibovat na pivo,
Fslíbít to já znám.
V neděli v Cmitelevizi,
jasně že Asza provizi,
rozebrat Gsituaci
to já a chlapi v práci.

®: Když něco Cmirozeberem,
tak leda Esbuldozerem.
BProfesore vy jste mi to Aszavařil,
ten váš kluk Cminení blbej,
jen trochu Espohodlnej,
že Bjá se tenkrát aspoň málo Asnesnažil.

{Intro}

Dejte mi moc a do ruky hůl,
to byste viděli
a do práce i v sobotu a v neděli
a velkej dubovej stůl,
hrabal bych prachy
tak žádný strachy.

Já bych vám ještě ukázal,
všechno bych povolil na chvíli
a hnedle bych to zakázal
a čekal co bude dál.
V neděli v televizi,
jasně že za provizi,
rozebrat situaci
to já a chlapi v práci.

®

„Nemůžou mi říkat, že lžu.
Můžou mi říkat, že lžu,
když lžu, nebo když se chystám lhát,
nebo jsem zrovna dolhal.
Ale ne když mluvim pravdu.“

{Sólo}

3x ®


{Outro}

Cmi
e |-----------3--4--|--------|
h |--1--4--1--------|--4--1--|
G |-----------------|--------|
D |-----------------|--------|
A |-----------------|--------|
E |-----------------|--------|


Ďalšie piesne z albumu

Malá dáma

Kabát

Burlaci

Kabát

Corrida

Kabát

Virtuóz

Kabát

Kostlivci

Kabát

Joy

Kabát

Intro

Kabát

Kdovi jestli

Kabát

Novinky v katalógu

Najpopulárnejšie piesne interpreta

Pohoda

Kabát

Malá dáma

Kabát

COLORADO

Kabát

Šaman

Kabát

Burlaci

Kabát

Bára

Kabát

Kabát

Kabát

Corrida

Kabát

Akordy

C C# D D# Es E F F# G G# As A A# B H 

Najčítanejšie