Kabát: Akordy k piesni Kalamity Jane

Upraviť pieseň
Interpret: Kabát


Kabát - Kalamity Jane (akordy)

Transpozícia ( -2 -1 0 +1 +2 )


{A = 446 Hz}

2x {Intro}

e |--4-----------|-----------------|
h |--4--5--5--4--|--4--5--5--5p-4--|
G |--4-----------|-----------------|
D |--6-----------|-----------------|
G |--6-----------|-----------------|
E |--4-----------|-----------------|


4x {Solo}

E H G#mi H7(?)
e |--------------|-----------|----------------|--------------|
h |--------------|-----------|----------------|--------------|
G |--------1-----|-----4-----|------1--3--1---|--------------|
D |--2--4-----2--|--4-----4--|---1-(6)(8)(6)--|-----1-----1--|
A |--------------|-----------|--(6)-----------|--2-----2-----|
E |--------------|-----------|----------------|--------------|


{Riff}

E H
e |--------------|--------------|
h |--------------|--------------|
G |--------------|--------4-----|
D |--------2-----|-----4-----4--|
G |-----2-----2--|--2-----------|
E |--0-----------|--------------|



C#miKalamity Jane, ty její
Asmikolty krutý jsou,E, H {Riff}
C#miMackie Messer zlej a Sarka
AsmiFarka nocí jdou.E, H {Riff}
C#miMaxmilián Dráp, kdejaká
Asmihavěť se tu potlouká.E, H {Riff}
C#miNemělas to hrát, nemrtvej
Asmido ucha ti zabrouká.E, H {Riff}

No tak E*ještě neE**choď E*spát,
oni C#mibudou si tak trochu hrát,
jen s tebou.

4x {Solo}

Vem si bílej šál a šaty
černý krajkový.
Umej se a pojď, já ukážu ti
věci takový.

A kolem příšer noční rej,
bude to vono, a ty hudbo hrej.

®: Walz nám Adodá Johann Strauss
Přídou EFilipes i Mickey Mouse
Dýdžej Gdá tam tuhej haus, jak to mám Drád.
Dávný temný Asíly, který znám
Já bejt Etebou, tak jim dám
Jsou tu Gvšude kolem nás a je to Dznát,
vem mě sebou.

Kalamity Jane, ty její
kolty krutý jsou,
Mackie Messer zlej a Sarka
Farka nocí jdou.

No tak ještě nechoď spát,
oni budou si jen trochu hrát,
teď s tebou.

10x {Solo}

{Fade out}



E* 079900 (Hudební znalci zajisté poznali, že toto vlastně není akord, ale jenom několikanásobní interval :oD
E** 079800

Ďalšie piesne z albumu

Novinky v katalógu

Najpopulárnejšie piesne interpreta

Pohoda

Kabát

Malá dáma

Kabát

COLORADO

Kabát

Šaman

Kabát

Burlaci

Kabát

Bára

Kabát

Kabát

Kabát

Corrida

Kabát

Akordy

C C# D D# Es E F F# G G# As A A# B H 

Najčítanejšie