Kabát: Akordy k piesni Učitel

Upraviť pieseň
Interpret: Kabát


Kabát - Učitel (akordy)

Transpozícia ( -2 -1 0 +1 +2 )



riff 1 intro

e-------------------------------------------------
h-4/5---------9/10---------11/12------------------
g-5/6--------10/11---------12/13--(opak.)-9-9-9-9-
D-6/7--------11/12---------13/14----------9-9-9-9-
A-0-0-0-0-0-0-0-0-0-0-0-0--0-0-0-0-0-0-0--7-7-7-7-
E-------------------------------------------------

Riff 2 vs sloka

e----------------------------------------------------------
h----------------------------------------------------------
g----------------------------------------------------------
D----------------------------------------------------------
A--0--0--3--4-------0--0--0--3--4-----(opakuj)-------------
E--------------2-0-----------------2-----------------------

Prosil bych dávat pozor
a připravte si hlas
nechápu tyhle kecy
co je to za dotaz

No jistě ještě jednou
ať zní to jako zvon
první druhá třetí
a teď správnej tón!

Refren:
AJe tvůj,ten Esbor, seš králCnáš vzorGmáš stylDmáš glancA. D/ED/ED/ED/ED/ED/E

Riff 1, riff 2

Docela to ladí ale něco mi tam vadí
Refrén:
Je tvůj ten sbor…

Chce to cvičit málo platný
ovšem nebylo to špatný

Jdeme na to znova
tak prosím dokouřit
a nepleťte mi slova
dejte do toho cit

Zpíváte čistou pravdu
co ještě chcete víc
první druhá třetí
a teď z plnejch plic!

Refrén:
Je tvůj ten sbor…
Jen to tam znova dej pěkně to rozhoupej
Refrén:
Je tvůj ten sbor…
Ať nám to silně zní a celej svět ať ví

Že jsem ten Hnejlepší dirigent na Csvětě
v tom šírým C# vesmiru na týhle Dplanetě
a jedem D/ED/ED/ED/E
D/E D/Edal a jedem vic rostu
až do nebe praštím se o měsic

Vsechny akordy jsou power akordy [A5,E5,D5...]
pokud neco uplne nesedi tak sak sorry. Hasju.


Ďalšie piesne z albumu

Novinky v katalógu

Najpopulárnejšie piesne interpreta

Pohoda

Kabát

Malá dáma

Kabát

COLORADO

Kabát

Šaman

Kabát

Burlaci

Kabát

Bára

Kabát

Kabát

Kabát

Corrida

Kabát

Akordy

C C# D D# Es E F F# G G# As A A# B H 

Najčítanejšie