Kabát: Akordy k piesni Virtuóz

Upraviť pieseň
Interpret: Kabát


Kabát - Virtuóz (akordy)

Transpozícia ( -2 -1 0 +1 +2 )


2x {Intro}

A
e |--------------------|----------------|
h |-----------2-----2--|--3--3--2-------|
G |--2--4--2-----2-----|-----------4----|
D |--------------------|----------------|
A |--------------------|----------------|
E |--------------------|----------------|



2x {Intro s doprovodem}

AŘeknu vám, já na to mám,
můžu zahrát Eklidně blues,
mám Drychlost, rytmus, Atechniku
Estyl a vytříHbenej vkus.

Anástroj v rukách sluší moc,
Hendrix by mu Ezáviděl
a Dnabídek mám Aplnej stůl,
Fumim hrát tos neviděls.

®: Tam kde Cbyl. Všude Gzahrál.
Po něm Fzbyl jenom randál.
Já jsem Ctou ozdobou Gléta.
Na co Fsáhne to mu vzkvétá.

2x {Intro}

Jsem virtuóz a hudba má
je dokonalá a soudobá,
hraje vleže vestoje,
umim rockový postoje.

Je virtuóz a techniku má,
to se vás chlapci netýká.
Jsem krásnej, vtipnej, štíhlej
a má bílej digitál dýlej.

®


4x {Sólo}

A
e |-----------------------|
h |-----------------------|
G |-----2--0-----------0--|
D |-----------2-----2-----|
A |--0-----------4--------|
E |-----------------------|



{Bridge}
UDmim na tenor saxofón
a Ajak mi sluší makrofón.
CPrvní, druhý, třetí, housle Gdávám.

Dmoje sláva pomine,
tak Az hudby už moc nezbyde.
GPardon, milá paní,
ale už jde na mě spaní.

4x ®

{Fade out}

Ďalšie piesne z albumu

Malá dáma

Kabát

Burlaci

Kabát

Buldozerem

Kabát

Corrida

Kabát

Kostlivci

Kabát

Joy

Kabát

Intro

Kabát

Kdovi jestli

Kabát

Novinky v katalógu

Najpopulárnejšie piesne interpreta

Pohoda

Kabát

Malá dáma

Kabát

COLORADO

Kabát

Šaman

Kabát

Burlaci

Kabát

Bára

Kabát

Kabát

Kabát

Corrida

Kabát

Akordy

C C# D D# Es E F F# G G# As A A# B H 

Najčítanejšie