Kabát: Akordy k piesni Wonder

Upraviť pieseň
Interpret: Kabát


Kabát - Wonder (akordy)

Transpozícia ( -2 -1 0 +1 +2 )


{Riff – kytara}

e |-----------------------|
h |-----------------------|
g |-----2-----2-----5--5--|
D |-----2-----2-----4--4--|
A |--0-----3-----7--------|
E |-----------------------|


{Riff – basa 1}

g |-----------|
D |-----------|
A |--0--3--5--|
E |-----------|


{Riff – basa 2}

E G
g |-----------------------------------------|--------|
D |-----------------------------------------|--------|
A |-----------------------------------------|--------|
E |--0--0--0--0--0--0--0--0--0--0--0--0--0--|--3--3--|



{Kytara + Basa 1}
Už je to tu znovu
Nestartuje mi vůz
Budu muset letět
Někam na autobus

Roztrh sem si gatě
Zakopnul a pad
Držkou rovnou v blátě
To není možný snad

{Basa 2}
®: ENa poslední chvíli
Šofér počkal to se mám
GSednu si a přemejšlim
Vodkuď já ho jenom znám

{Kytara + Basa 1}
STEVIE WONDER, AHA
STEVIE WONDER, AHA

To vám byla jízda
Von letěl jako šíp
Lidi řvali hrůzou
No prostě blbej vtip

Nahoru a dolu
To ještě nebyl cíl
Všichni drželi spolu
Každej se pomodlil

®: Začal brzdit, HURÁ!
Už to máme za sebou
Dal tam za tři
Šlápnul na to, zařval, I just call

STEVIE WONDER…

{Fade out}


Pozn.: KAPITÁLKAMI zpívá sbor

Ďalšie piesne z albumu

Novinky v katalógu

Najpopulárnejšie piesne interpreta

Pohoda

Kabát

Malá dáma

Kabát

COLORADO

Kabát

Bára

Kabát

Burlaci

Kabát

Kabát

Kabát

Šaman

Kabát

Corrida

Kabát

Akordy

C C# D D# Es E F F# G G# As A A# B H 

Najčítanejšie