Kooks: Akordy k piesni Got No Love

Upraviť pieseň
Interpret: Kooks


Kooks - Got No Love (akordy)

Transpozícia ( -2 -1 0 +1 +2 )



INTRO/RIFF
|-----------------------|
|--------0--------------|
|-----------0-----0-----|
|-----0-----------------|
|--------------3--------|
|--3-----------------3--|


RIFF
You, you aint got no love today
RIFF
You, you aint got no love today

EM DoDn't let them bring yGou down

RIFF
You, you aint got no love today
RIFF
You, you aint got no love today - do the same here

EM doDn't let them bring yGou down

|-----------|
|-4-5-4-5-4-|
|-----------|
|-----------|
|-----------|
|-----------|



EM Hold on, doDn't let them brCing you Gdown
EM Hold on, doDn't let them brCing you Gdown

|--------------|
|--------------|
|------------0-|
|--------0-2---|
|----0-2-------|
|--3-----------|



EM DoDn't let them bring yGou down
EM DoDn't let them bring yGou down

|-----------|
|-4-5-4-5-4-|
|-----------|
|-----------|
|-----------|
|-----------|

N.C.}
got no love
got no love



Ďalšie piesne z albumu

If Only

Kooks

Sofa Song

Kooks

Naive

Kooks

Matchbox

Kooks

Seaside

Kooks

Time Awaits

Kooks

Ooh La

Kooks

Novinky v katalógu

Najpopulárnejšie piesne interpreta

Akordy

C C# D D# Es E F F# G G# As A A# B H 

Najčítanejšie