Nirvana: Akordy k piesni Pennyroyal Tea

Upraviť pieseň
Interpret: Nirvana

Dĺžka piesne: 03:36



Nirvana - Pennyroyal Tea (akordy)

Transpozícia ( -2 -1 0 +1 +2 )


AmiIm on my time with Geveryone
AmiI have very bad Gposture
CSit and drink DPennyroyal BTea
CDistill the life Dthats inside of Bme
CSit and drink DPennyroyal BTea
CIm aneDmic Broyalty

Give me a Leonard Cohen afterworld
So I can sigh eternally

Im so tired I cant sleep
Im a liar and a thief
Sit and drink Pennyroyal Tea
Im anemic royalty

Im on warm milk and laxatives
Cherry-flavored antacids


(End on Am)
sloka
e------5----------3------------------------------------------------5-------------3--------------------
h------5----------3------------------------------------------------5-------------3--------------------
g------5----------4------------------------------------------------5-------------4--------------------
d------7----------5------------------------------------------------7-------------5--------------------
a------7----------5------------------------------------------------7-------------5--------------------
e-----5-----------3-----------0------------3----------0----------5-------------3--------------------

refrén:
e-----------------------------------------------------------------------------------------------------------
h-----------------------------------------------------------------------------------------------------------
g------5-----7------3-------------------------------------------------------------------------------------
d------5-----7------3-------------------------------------------------------------------------------------
a------3-----5------1-------------------------------------------------------------------------------------
e------------------------------------------------------------------------------------------------------------

solo
e-------------------2x--------------------/--------3-----------3----------2---------0--------
h----2----0----3----0-----2------0-----/--------3------------------------------------------3
g----2----0----3----0-----2------0-----/--------4-------------------------------------------
d----2----0----3----0-----2------0-----/--------5-------------------------------------------
a-------------------------------------------/--------5-------------------------------------------
e-------------------------------------------/--------3-------------------------------------------

Ďalšie piesne z albumu

Rape Me

Nirvana

Dumb

Nirvana

Very Ape

Nirvana

Milk It

Nirvana

Tourette's

Nirvana

All Apologies

Nirvana

Novinky v katalógu

Najpopulárnejšie piesne interpreta

Akordy

C C# D D# Es E F F# G G# As A A# B H 

Najčítanejšie