Omega: Akordy k piesni Gyöngyhaju lany

Upraviť pieseň
Interpret: Omega


Omega - Gyöngyhaju lany (akordy)

Transpozícia ( -2 -1 0 +1 +2 )


{Capo in I.}

4x {Intro}

Emi D Ami Emi
e |--0--2--3--0--|--3--2--0--2-----|--0-----------|-----------------|
h |--------------|--------------3--|-----0--1-----|--0--------------|
G |--------------|-----------------|-----------2--|-----0-----0-----|
D |--------------|-----------------|--------------|--------4-----2--|


2x {Solo}

G D Ami Emi
e |--------|-----------|--------------|--------------|-----------------|
h |--------|--0--0--0--|--0-----------|--------------|-----------------|
G |--0--2--|-----------|-----2--0--2--|-----2--2--2--|--2--0-----0--2--|
D |--------|-----------|--------------|--2-----------|--------4--------|

G D Ami Emi
e |--------|--------------|-----------------|-----|
h |--0--0--|--0-----------|-----------------|-----|
G |--------|-----2--0--2--|-----2--2--2--0--|-----|
D |--------|--------------|--2--------------|--2--|



EmiEgyszer a Dnap Amiúgy elfáEmiradt,
EmiElaludt Dmély, Amizöld tó öEmilén,
EmiAz embeDreknek Amifájt a söEmitét,
EmiŐ megsajDnált, Amieljött köEmizénk –

®: Igen, Gjött egy Dgyöngyhajú lány,
AmiÁlmodtam, vagy Emiigaz talán
GÍgy lett Da föld, az ég
AmiZöld meg kék, mint Emirég
Igen, Gjött egy Dgyöngyhajú lány,
AmiÁlmodtam, vagy Emiigaz talán
GLá lá Dlá la la lá
AmiLá la lá la la Emi

A hajnal kelt, ő hazament,
Kék hegy mögé, virág közé,
Kis kék elefánt, mesét mesél (Kissé elfáradt, mesét mesél)
Szép gyöngyhaján, alszik a fény.

®: Igen, él egy gyöngyhajú lány,
Álmodtam, vagy igaz talán,
Gyöngyhaj azóta rég (Gyöngyhaj azóta mély)
Mély tengerben ért (Kék tengerben él) (Éden-kertben él)
Igen, él egy gyöngyhajú lány,
Álmodtam, vagy igaz talán,
Lá lá lá la la lá
Lá la lá la la lá

{Solo}

®: Igen, él egy gyöngyhajú lány,
Álmodtam, vagy igaz talán,
Gyöngyhaj azóta rég (mély)
Mély tengerben ért (Kék tengerben él) (Éden-kertben él)
Igen, él egy gyöngyhajú lány,
Álmodtam, vagy igaz talán,
Lá lá lá la la lá
Lá la lá la la lá

Mikor nagyon, egyedül vagy
Lehull hozzád egy kis csillag
Hófehér gyöngyök vezessenek,
Mint jó vándort fehér kövek –

®: (Igen,) Ébredj gyöngyhajú lány
Álmodtam, vagy igaz talán
Ránk vár gyöngye mögöt (Lámpák gyöngye vezet)
Ég és föld között
Igen, hív, egy gyöngyhajú lány,
Álmodtam, vagy igaz talán,
Ránk vár gyöngye mögöt (Lámpák gyöngye vezet)
Ég és föld között
Igen, ébredj gyöngyhajú lány
Álmodtam, vagy igaz talán
Lá lá lá la la lá
Lá la la la lá
Lá lá lá la la lá
Lá la lá la lá la la lá
Lá lá lá la la lá
Lá la la la lá

{Fade out}

Ďalšie piesne z albumu

Novinky v katalógu

Najpopulárnejšie piesne interpreta

Akordy

C C# D D# Es E F F# G G# As A A# B H 

Najčítanejšie