Polemic: Akordy k piesni Fred Kingston

Upraviť pieseň
Interpret: Polemic


Polemic - Fred Kingston (akordy)

Transpozícia ( -2 -1 0 +1 +2 )


e---------------------------------------
h------4---6-6-4-------6-6-6/8-6-6/8-6--
g--5-------------5-----6-6-6/8-6-6/8-6--
D------------------6--------------------
A---------------------------------------
E---------------------------------------

e---------------------------------------
h--6---4---6-6-4-------6-6-6/8-6-6/8-6--
g----------------5-----6-6-6/8-6-6/8-6--
D------------------6--------------------
A---------------------------------------
E---------------------------------------

Ďalšie piesne z albumu

SLNKO V SIETI

Polemic

ONA JE TAKÁ

Polemic

HURIKÁN

Polemic

Thanx for all

Polemic

Môj svet

Polemic

Yahman

Polemic

Trick

Polemic

Výlet

Polemic

Príbeh

Polemic

Sunday feeling

Polemic

Domino

Polemic

Novinky v katalógu

Najpopulárnejšie piesne interpreta

KOMPLIKOVANÁ

Polemic

ONA JE TAKÁ

Polemic

JA SOM TO VEDEL

Polemic

Baba ryba

Polemic

BLÁZNI

Polemic

DO SKA

Polemic

SLNKO V SIETI

Polemic

YOU CAN GET IT

Polemic

SKANK

Polemic

Akordy

C C# D D# Es E F F# G G# As A A# B H 

Najčítanejšie