Scars On Broadway: Akordy k piesni Babylon

Upraviť pieseň
Interpret: Scars On Broadway

Dĺžka piesne: 03:56



Scars On Broadway - Babylon (akordy)

Transpozícia ( -2 -1 0 +1 +2 )


Babylon - Scars on Broadway

Tuning: Drop C#



Intro
^
Q Q Q E E E Q E Q Q 4x
D#||------------------------|------------------------||
A#||------------------------|------------------------||
F#||*-----------------------|-----------------------*||
C#||*------------0----------|-----0------------0----*||
G#||--------0------------0--|--L----------0----------||
C#||---0--------------0-----|----------0-------------||


(00:12)
Run... ...ning to
Q Q E E E E E E E E E E E E
----------------------------|----------------------------|
----------------------------|----------------------------|
----------------------------|----------------------------|
------------0---------------|--------0-------------0-----|
-------0-------(0)-----(0)--|-----0-----(0)-----0-----0--|
--5-----------------5-------|--7-------------8-----------|


Ba - by- lon Run...
Q Q Q E E E Q E Q E E Q Q E E E E
-----------------------|------------------------|----------------------------|
-----------------------|------------------------|----------------------------|
-----------------------|------------------------|----------------------------|
------------0----------|-----0------------0-----|------------0---------------|
-------0------------0--|--L----------0-------0--|-------0-------(0)-----(0)--|
--0--------------0-----|----------0-------------|--5-----------------5-------|


all the way to...
E E E E E E E E Q Q Q E E E Q E Q E E
---------------------------|-----------------------|------------------------|
---------------------------|-----------------------|------------------------|
---------------------------|-----------------------|------------------------|
------0-----0-----0-----0--|------------0----------|-----0------------0-----|
---------------------------|-------0------------0--|--L----------0-------0--|
--10-----8-----7-----8-----|--0--------------0-----|----------0-------------|


Meet you there...
Q Q Q Q Q Q E E E E Q Q Q Q
|-----------------------|------------------------|----------------------|
|-----------------------|------------------------|------------2---------|
|*----------------------|------------------------|-----------------2----|
|*------------3---------|------------3-----------|-------2--------------|
|--------3---------3----|--L------------3-----3--|--0-------------------|
|---3-------------------|-------3----------3-----|----------------------|


^
Q Q E E E E Q Q Q E E E Q E Q Q
------------------------|-----------------------|-----------------------|
------------2-----------|-----------------------|-----------------------|
--L------------2-----2--|-----------------------|-----------------------|
-------2----------2-----|------------0----------|-----0------------0----|
------------------------|-------0------------0--|--L----------0---------|
------------------------|--0--------------0-----|----------0------------|


Q Q Q E E E Q E Q Q Q Q Q E E
-----------------------|------------------------||------------------------|
-----------------------|------------------------||------------------------|
-----------------------|-----------------------*||*-----------------------|
------------0----------|-----0------------0----*||*------------0----------|
-------0------------0--|--L----------0----------||--------0------------0--|
--0--------------0-----|----------0-------------||---0--------------0-----|

(00:58)
Run...
E Q E Q Q Q Q E E E E
------------------------||----------------------------|
------------------------||----------------------------|
-----------------------*||----------------------------|
-----0------------0----*||------------0---------------|
--L----------0----------||-------0-------(0)-----(0)--|
----------0-------------||--5-----------------5-------|


E E E E E E E E Q Q Q E E E Q E Q E E
------------------------------|-----------------------|------------------------|
------------------------------|-----------------------|------------------------|
------------------------------|-----------------------|------------------------|
--------0-------------0-------|------------0----------|-----0------------0-----|
-----0-----(0)-----0-----(0)--|-------0------------0--|--L----------0-------0--|
--7-------------8-------------|--0--------------0-----|----------0-------------|


Q Q E E E E E E E E E E E E Q Q Q E E
------------------------|---------------------------|-----------------------|
------------------------|---------------------------|-----------------------|
------------------------|---------------------------|-----------------------|
------------0-----------|------0-----0-----0-----0--|------------0----------|
-------0-------0-----0--|---------------------------|-------0------------0--|
--5---------------5-----|--10-----8-----7-----8-----|--0--------------0-----|

Meet...
E Q E Q E E Q Q Q Q
------------------------|-------|----------------------|
------------------------|-------|----------------------|
------------------------|-------|----------------------|
-----0------------0-----|-------|------------3---------|
--L----------0-------0--|-------|-------3---------3----|
----------0-------------|-------|--3-------------------|


Q Q E E E E Q Q Q Q Q Q E E E E
------------------------|----------------------|------------------------|
------------------------|------------2---------|------------2-----------|
------------------------|-----------------2----|--L------------2-----2--|
------------3-----------|-------2--------------|-------2----------2-----|
--L------------3-----3--|--0-------------------|------------------------|
-------3----------3-----|----------------------|------------------------|


^
Q Q Q E E E Q E Q Q Q Q Q E E
-----------------------|-----------------------|-----------------------|
-----------------------|-----------------------|-----------------------|
-----------------------|-----------------------|-----------------------|
------------0----------|-----0------------0----|------------0----------|
-------0------------0--|--L----------0---------|-------0------------0--|
--0--------------0-----|----------0------------|--0--------------0-----|


E Q E Q Q Q Q Q Q Q Q Q E E
-----------------------|----------------------|-----------------------|
-----------------------|----------------------|-----------------------|
-----------------------|----------------------|-----------------------|
-----0------------0----|------------3---------|------------3----------|
--L----------0---------|-------3---------3----|--L--------------3--3--|
----------0------------|--3-------------------|-------3---------------|

(01:31)
(vocals on 3rd time)
Marooned Again...
PM PM PM PM PM PM PM PM
Q Q Q Q Q E E H E E E E E E E E
----------------------|----------------------||---------------------------|
----------------------|----------------------||---6-----6-----6-----6-----|
------------6---------|----------------------||*-----7-----7-----7-----7--|
-----------------7----|--L----L--------------||*--------------------------|
-------7--------------|----------------------||---------------------------|
--7-------------------|----------------------||---------------------------|


PM PM PM PM PM PM PM PM PM PM PM PM PM PM PM PM
E E E E E E E E E E E E E E E E
--------------------------|--5-----5-----5-----5-----|
--5-----5-----5-----5-----|--------------------------|
-----7-----7-----7-----7--|-----7-----7-----7-----7--|
--------------------------|--------------------------|
--------------------------|--------------------------|
--------------------------|--------------------------|

(01:43)
I liked the way...
PM PM PM PM PM PM PM PM PM PM PM PM PM PM PM PM
E E E E E E E E 4x E E E E E E E E
--6-----6-----6-----6------||---------------------------|
---------------------------||---8-----8-----8-----8-----|
-----7-----7-----7-----7--*||*-----9-----9-----9-----9--|
--------------------------*||*--------------------------|
---------------------------||---------------------------|
---------------------------||---------------------------|

If we were all marooned...
PM PM PM PM PM PM PM PM PM PM PM PM PM PM PM PM
E E E E E E E E E E E E E E E E
---------------------------||---------------------------|
--6-----6-----6-----6------||---5-----5-----5-----5-----|
-----9-----9-----9-----9--*||*-----6-----6-----6-----6--|
--------------------------*||*--------------------------|
---------------------------||---------------------------|
---------------------------||---------------------------|


PM PM PM PM PM PM PM PM
E E E E E E E E
---------------------------|
--6-----6-----6-----6------|
-----7-----7-----7-----7--*|
--------------------------*|
---------------------------|
---------------------------|

(play another verse, starting from "Marooned again...")


(02:33)
(Instrumental)
Q. S S Q. E Q Q Q Q Q. E Q. S S
-------------------------|-------------------------|-----------------------|
-------------------------|-------------------------|-----------------------|
--9------9-9-10------10--|--12----10----9----10----|--5------3--3------3-3-|
--x------x-x--x-------x--|---x-----x----x-----x----|--x------x--x------x-x-|
--7------7-7--8-------8--|--10-----8----7-----8----|--3------1--1------1-1-|
-------------------------|-------------------------|-----------------------|


PM PM
Q. S S S S S S S S S S Q. S S Q. S S
-------------------------------|---------------------------|
-------------------------------|---------------------------|
--3------3-3-3-3-3-3-3-3-------|--9------9-9-10------10-10-|
--x------x-x-x-x-x-x-x-x-------|--x------x-x--x-------x--x-|
--1------1-1-1-1-1-1-1-1-0--0--|--7------7-7--8-------8--8-|
-------------------------0--0--|---------------------------|


Q Q Q Q E Q E Q. E
-------------------------|-----------------------------|
-------------------------|-----------------------------|
--12----10----9----10----|--14s--15----14--14------14--|
---x-----x----x-----x----|---xs---x-----x---x-------x--|
--10-----8----7-----8----|--12s--13----12--12------12--|
-------------------------|-----------------------------|


^ v ^ v ^ v ^ v ^ v ^ v
E E S S S S S S S S S S S S
----------------------------------------------|
----------------------------------------------|
--14--14--14-14-14-14-14-14-14-14-14-14-14-14-|
---x---x---x--x--x--x--x--x--x--x--x--x--x--x-|
--12--12--12-12-12-12-12-12-12-12-12-12-12-12-|
----------------------------------------------|

(02:45)
(Vocals)
Q E S S S S S S S S S S
|-----------------------------------------|
|-----------------------------------------|
|*----------------------------------------|
|*----------------------------------------|
|---8----8--10-10-10-10-10-10-10-10-10-10-|
|---8----8---8--8--8--8--8--8--8--8--8--8-|


Q E S S S S S S S S S S Q S S S S S S S S S S S S
----------------------------------------|-------------------------------|
----------------------------------------|-------------------------------|
----------------------------------------|-------------------------------|
----------------------------------------|-------------------------------|
--8----8--10-10-10-10-10-10-10-10-10-10-|--8----8-8-7-7-7-7-7-7-7-7-7-7-|
--8----8---8--8--8--8--8--8--8--8--8--8-|--7----7-7-7-7-7-7-7-7-7-7-7-7-|


Q E S S S S S S S S S S Q E S S S S S S S S S S
------------------------------|----------------------------------------|
------------------------------|----------------------------------------|
------------------------------|----------------------------------------|
------------------------------|----------------------------------------|
--8----8--7-7-7-7-7-7-7-7-7-7-|--8----8--10-10-10-10-10-10-10-10-10-10-|
--7----7--7-7-7-7-7-7-7-7-7-7-|--8----8---8--8--8--8--8--8--8--8--8--8-|


Q E S S S S S S S S S S Q. S S Q. S S
----------------------------------------|------------------------|
----------------------------------------|------------------------|
----------------------------------------|------------------------|
----------------------------------------|------------------------|
--8----8--10-10-10-10-10-10-10-10-10-10-|--8------8-7-7------7-7-|
--8----8---8--8--8--8--8--8--8--8--8--8-|--7------7-7-7------7-7-|

(03:10)
Run...
(2nd time, finish this off with a pick scrape instead)
Q E S S S S S S S S S S H Q E E
-------------------------------------------||----------------------|
-------------------------------------------||----------------------|
------------------------------------------*||----------------------|
------------------------------------------*||--5--------5----5--5--|
--11----11--11-11-11-11-11-11-11-11-11-11--||--5--------5----5--5--|
--11----11--11-11-11-11-11-11-11-11-11-11--||--5--------5----5--5--|


^ ^ ^ v v ^
H H Q. E Q. E E E Q E Q.
--------------------|-------------------1--|--L----------1--1------|
--------------------|-------------------3--|--L--L--L----3--3------|
--------------------|------------2------2--|--L--2--2----2--2------|
--7--------8--------|--0------L--0------0--|--L--0--0----L--L------|
--7--------8--------|--0------L--L------0--|--L--0--0----L--L------|
--7--------8--------|--0------L--L------0--|--L--0--0----L--L------|


^
H Q E E Q Q Q Q Q. E Q. E
----------------------|------------------------|-------------------1--|
----------------------|------------------------|-------------------3--|
----------------------|------------------------|------------2------2--|
--5--------5----5--5--|---10----8----7----8----|--0------L--0------0--|
--5--------5----5--5--|---10----8----7----8----|--0------L--L------0--|
--5--------5----5--5--|--/10----8----7----8----|--0------L--L------0--|


^ ^ v v ^
E E Q E Q. H Q. E E E Q E E E E
--L----------1--1------|---------------------|-------------------------|
--L--L--L----3--3------|---------------------|-------------------------|
--L--2--2----2--2------|---------------------|-------------------------|
--L--0--0----L--L------|--3--------3------3--|--L--3--3----3--3--3--3--|
--L--0--0----L--L------|--3--------3------3--|--L--3--3----3--3--3--3--|
--L--0--0----L--L------|--3--------3------3--|--L--3--3----3--3--3--3--|


H Q. E E E Q E E E E
---------------------|-------------------------|
---------------------|-------------------------|
---------------------|-------------------------|
--7--------7------7--|--L--7--7----7--L--L--7--|
--7--------7------7--|--L--7--7----7--L--7--7-|
--7--------7------7--|--L--7--7----7--7--7--L--|


(03:28)
PM PM PM PM PM PM PM PM PM PM PM PM PM PM PM PM
E E E S S E E E S S E E E S S E E E S S

|----------------------------------|----------------------------------|
|----------------------------------|----------------------------------|
|--------10--------------10--------|--------10--------------10--------|
|--0--0--10--0--0--0--0--10--0--0--|--0--0--10--0--0--0--0--10--0--0--|
|--0--0---8--0--0--0--0---8--0--0--|--0--0---8--0--0--0--0---8--0--0--|
|--0--0------0--0--0--0------0--0--|--0--0------0--0--0--0------0--0--|


PM PM PM PM PM PM PM PM
E E E S S E E E S S E E E E E E Q
----------------------------------|--------------------------------|
----------------------------------|--------------------------------|
--------10--------------10--------|--10--10--10--10--10--10--10----|
--0--0--10--0--0--0--0--10--0--0--|--10--10--10--10--10--10--10----|
--0--0---8--0--0--0--0---8--0--0--|---8---8---8---8---8---8---8----|
--0--0------0--0--0--0------0--0--|--------------------------------|


(03:34)
Meet...
H Q. E E E Q E E E E H Q. E
---------------------|-------------------------|---------------------|
---------------------|-------------------------|---------------------|
---------------------|-------------------------|---------------------|
--3--------3------3--|--L--3--3----3--3--3--3--|--7--------7------7--|
--3--------3------3--|--L--3--3----3--3--3--3--|--7--------7------7--|
--3--------3------3--|--L--3--3----3--3--3--3--|--7--------7------7--|

(03:40)
PM PM PM PM PM PM PM PM PM PM PM PM PM PM PM PM
E E Q E E E E E E E E E E E E E E E E E E E E
-------------------------|--------------------------|--------------------------|
-------------------------|--6-----6-----6-----6-----|--5-----5-----5-----5-----|
-------------------------|-----7-----7-----7-----7--|-----7-----7-----7-----7--|
--L--7--7----7--L--L--7--|--------------------------|--------------------------|
--L--7--7----7--L--7--L--|--------------------------|--------------------------|
--L--7--7----7--7--7--7--|--------------------------|--------------------------|


PM PM PM PM PM PM PM PM PM PM PM PM PM PM PM PM
E E E E E E E E E E E E E E E E
--5-----5-----5-----5-----|--6-----6-----6-----6-----|
--------------------------|--------------------------|
-----7-----7-----7-----7--|-----7-----7-----7-----7--|
--------------------------|--------------------------|
--------------------------|--------------------------|
--------------------------|--------------------------|


PM PM PM PM PM PM PM PM
E E E E E E E E
|--------------------------|--------------------------|
|--6-----6-----6-----6-----|--5-----5-----5-----5-----|
|-----7-----7-----7-----7--|-----7-----7-----7-----7--|
|--------------------------|--------------------------|
|--------------------------|--------------------------|
|--------------------------|--------------------------|


PM PM PM PM PM PM PM PM PM PM PM PM PM ^ ^
E E E E E E E E E E E E E E E E
--5-----5-----5-----5-----|--6-----6-----6--6--6--6--||
--------------------------|--------------------------||
-----7-----7-----7-----7--|-----7-----7--7--7--7--7--||
--------------------------|--------------------------||
--------------------------|--------------------------||
--------------------------|--------------------------||










Duration Legend
---------------
W - whole
H - half
Q - quarter
E - 8th
S - 16th
T - 32nd
X - 64th
. - note dotted



Tablature Legend
----------------
L - tied note
x - dead note
> - accentuded note
/ - slide into from below or out of upwards
\ - slide into from above or out of downwards
^ - brush up
v - brush down

Ďalšie piesne z albumu

Serious

Scars On Broadway

Funny

Scars On Broadway

Exploding/Reloading

Scars On Broadway

Stoner Hate

Scars On Broadway

Insane

Scars On Broadway

World Long Gone

Scars On Broadway

Kill Each Other/Live Forever

Scars On Broadway

Chemicals

Scars On Broadway

Enemy

Scars On Broadway

Universe

Scars On Broadway

3005

Scars On Broadway

Cute Machines

Scars On Broadway

Whoring Streets

Scars On Broadway

They Say

Scars On Broadway

Novinky v katalógu

Najpopulárnejšie piesne interpreta

Babylon

Scars On Broadway

They Say

Scars On Broadway

3005

Scars On Broadway

Enemy

Scars On Broadway

Exploding/Reloading

Scars On Broadway

Funny

Scars On Broadway

Chemicals

Scars On Broadway

Kill Each Other/Live Forever

Scars On Broadway

Cute Machines

Scars On Broadway

Serious

Scars On Broadway

Akordy

C C# D D# Es E F F# G G# As A A# B H 

Najčítanejšie