Stereophonics: Akordy k piesni Dakota

Upraviť pieseň
Interpret: Stereophonics


Stereophonics - Dakota (akordy)

Transpozícia ( -2 -1 0 +1 +2 )


EThinking about thinking of yAou.
Summertime think it was June
Yeah think it was EJune.
Laying back, head on theA grass.
Children grown having some laughs
Yeah having someE laughs.

Chorus
C#MYou made me feel like theA one
C#MYou made me feel like the Eone
The one
C#MYou made me feel like theA one
C#MYou made me feel like theE one
The one

EDrinking back, drinking forA two
Drinking with you
And drinking was Enew
Sleeping in the back of myA car
We never went far
Don't need to go Efar

chorus

C#MI don't know where Awe are going Enow
C#MI don't know where Awe are going Enow


EWake up cold coffee and Ajuice
Remembering you
What happened to Eyou?
EI wonder if we'll meet Aagain
Talk about us instead
Talk about why did it Eend

chorus

C#MI don't know where Awe are going Enow
C#MI don't know where Awe are going Enow
ESo take a look at me Anow RERPEAT TO FADE



Chorus chorus riff
C#MMade me feel like theA one
C#MMade me feel like the Eone
The one
C#MMade me feel like theA one
C#MMade me feel like theE one
The one

Intro riff
EDrinking back, drinking forA two
Drinking with you
And drinking was Enew
Sleeping in the back of myA car
We never went far
No need to goE far

Chorus

C#m A E riff 1 x 4
I don't know where we are going now
C#m A E riff 1 x 4
I don't know where we are going now

Stereophonics
Dakota 2

EWake up cold coffee and Ajuice
Remembering you
What happened to Eyou?
EI wonder if we'll meet Aagain
Talk about us instead
Talk about why did it Eend

Chorus chorus riff

C#m A E riff 1 x4
I don't know where we are going now
C#m A E riff 1 x4
I don't know where we are going now
ESo take a look at me Anow RERPEAT TO FADE

RIFFS
Riff 1 intro riff

-------0--2---/----b7—4s5—7b--------7----7-------------------



-0--2---------/-s5-----------s5---0---0----------------------



--------------/----------------------------------------------



--------------/----------------------------------------------



--------------/----------------------------------------------



--------------/----------------------------------------------




chorus riff

-12--11--------------------12--11---------------------------



---------12--10--9--7--------------12--10—9b(X6)--7--5-----



-----------------------9------------------------------------



------------------------------------------------------------



------------------------------------------------------------



------------------------------------------------------------

Ďalšie piesne z albumu

Madame Helga

Stereophonics

Maybe Tomorrow

Stereophonics

Just Looking

Stereophonics

Doorman

Stereophonics

Deadhead

Stereophonics

Superman

Stereophonics

Novinky v katalógu

Najpopulárnejšie piesne interpreta

Dakota

Stereophonics

Maybe Tomorrow

Stereophonics

Have A Nice Day

Stereophonics

Mr Writer

Stereophonics

Maybe

Stereophonics

Just Looking

Stereophonics

Handbags and Gladrags

Stereophonics

Hurry up and wait

Stereophonics

Superman

Stereophonics

Lying In The Sun

Stereophonics

Akordy

C C# D D# Es E F F# G G# As A A# B H 

Najčítanejšie