Strokes: Akordy k piesni Someday

Upraviť pieseň
Interpret: Strokes


Strokes - Someday (akordy)

Transpozícia ( -2 -1 0 +1 +2 )


Someday {LP Is This It, 2001}
--------------------------------------------------------------------------------
intro:


FIRST GUITAR
A D A
e--5--7---9--7---9--7---7--5-
B--5--5---7--7---7--7---7--5-
G--6--6---7--7---7--7---7--6-
D--7--7---9--9---9--9---9--7-
A----------------------------
E----------------------------



SECOND GUITAR
Play A D A during intro after the first guitar played his part one time
(hear the song) and also during all verses like this:

AIn many ways
They'll Dmiss the good old days
Someday, Asomeday

Yeah, it hurts to say
But DI want you to stay
Sometimes, Asometimes

When we was young
Oh, man, did we have fun
Always, always
Promises
They break before they're made
Sometimes, sometimes

BRIDGE


A E F#m D A
e-----12--------10---------9---------5-----5--
B--14----14--12----12--10----10------7-----5--
G------------------------------------7-----6--
D------------------------------------7-----7--
A------------------------------------5-----7--
E------------------------------------5-----5--



AOh, my ex says I'm Elacking iF#min depth
DI will do my Abest
AYou say you wanna sEtay by myF#mi side
DDarling, your head's not Aright

I see alone we stand, together we fall apart
Yeah, I think I'll be alright
I'm working so I won't have to try so hard
Tables they turn sometimes

®:Oh, somedEay
Now I ain't wasting no more time

VERSE

And now my fears
They come to me in threes
So I sometimes
Say faith my friend
You say the strangest things
I find sometimes

BRIDGE

Oh, my ex says I'm lacking in depth
Say I will try my best
You say you wanna stay by my side
Darling, your head's not right

I see alone we stand, together we fall apart
Yeah, I think I'll be alright
I'm working so I won't have to try so hard
Tables they turn sometimes

®:
Oh, someday
I ain't wasting no more time

chords used:



A D E F#m E
e--5---5---0---2---7
B--5---7---0---2---9
G--6---7---1---2---9
D--7---7---2---4---9
A--7---5---2---4---7
E--5---5---0---2---7


Ďalšie piesne z albumu

Barely Legal

Strokes

Last Nite

Strokes

Soma

Strokes

The Modern Age

Strokes

Hard to Explain

Strokes

Is This It?

Strokes

Is This It

Strokes

Last Night

Strokes

Alone, Together

Strokes

Novinky v katalógu

Najpopulárnejšie piesne interpreta

Hard to Explain

Strokes

12:51

Strokes

Someday

Strokes

Reptilia

Strokes

Juicebox

Strokes

Heart In A Cage

Strokes

Last Night

Strokes

Akordy

C C# D D# Es E F F# G G# As A A# B H 

Najčítanejšie