Tři Sestry: Akordy k piesni Krámy

Upraviť pieseň
Interpret: Tři Sestry


Tři Sestry - Krámy (akordy)

Transpozícia ( -2 -1 0 +1 +2 )


BHHHBHH
HBHBHBHBH
HGHF#HGF#
HUž jsi zase Gňáká divná, Hjestli nemáš F#krámy,
Hsedíš doma Gu okna a F#pozoruješ havrany.
HVůbec nevíš Gco ti říkám, Hjdou o tobě F#fámy,
Hže čteš podeGzřelý knížky F#a nezdravíš známý.
E

ATak už přestaň F#brečet, Cnemusíš tu Hklečet,
Auž na tebe F#nemám nálaCdu,DCHCH
Atak už přestaň F#brečet, COatesovou Hjsem nečet,
Anejsme prostě F#dvojka do páCru.DC
HCHCDCHCD

Usmíváš se když jdem na to, duší někde v New Yorku,
myslíš si, že dělá ti to velkej černoch v klobouku.
Probudíš se zase doma, natahuješ do breku,
no tak čágo, já zas padám, večer strávim v Bráníku.

Tak už přestaň brečet, nemusíš tu klečet, už na tebe nemám náladu,
tak už přestaň brečet, Oatesovou jsem nečet, nejsme prostě dvojka do páru.


H G H F#
E |-7-7-7-7-7-7-7-7-----------------|-7-7-7-7-7-7-7-7-----------------|
H |-----------------8-8-8-8-8-8-8-8-|-----------------7-7-7-7-7-7-7-7-|
G |---------------------------------|---------------------------------|
D |---------------------------------|---------------------------------|
A |---------------------------------|---------------------------------|
E |---------------------------------|---------------------------------|

H G F# 2x
E |-7-7-7-7-7-7-7-7-----------------|---------------------------------|
H |-----------------8-8-8-8-8-8-8-8-|-6h--7---7---7---6h--7---7---7---|
G |---------------------------------|---------------------------------|
D |---------------------------------|---------------------------------|
A |---------------------------------|---------------------------------|
E |---------------------------------|---------------------------------|

E
E |---------------------------------||
H |-5~~~~~~~~~~~~~~~~~~~~~~~~~~~~~~~||
G |---------------------------------||
D |---------------------------------||
A |---------------------------------||
E |---------------------------------||


Tak už přestaň brečet, nemusíš tu klečet, už na tebe nemám náladu,
tak už přestaň brečet, Oatesovou jsem nečet, nejsme prostě dvojka do páru.

A

Ďalšie piesne z albumu

Zelená

Tři Sestry

Deset černejch piv

Tři Sestry

Ta naše rytmika

Tři Sestry

Had stupid

Tři Sestry

Pěší zóna

Tři Sestry

letní den

Tři Sestry

Večírek

Tři Sestry

Novinky v katalógu

Najpopulárnejšie piesne interpreta

Prúša

Tři Sestry

Dá dá dá

Tři Sestry

A bude mi blbě

Tři Sestry

Pijánovka

Tři Sestry

Titanic

Tři Sestry

Mexiko

Tři Sestry

Sovy v mazutu

Tři Sestry

Život je takovej

Tři Sestry

Modlitba pro partu

Tři Sestry

AIDA

Tři Sestry

Akordy

C C# D D# Es E F F# G G# As A A# B H 

Najčítanejšie