Tři Sestry: Akordy k piesni Zelená

Upraviť pieseň
Interpret: Tři Sestry


Tři Sestry - Zelená (akordy)

Transpozícia ( -2 -1 0 +1 +2 )


HVezmu si jen Gtroje slipy,
Asbalim psací Hstroj,GA
Hna půdě zbyl Gpo dědkovi
Aplnej včelí Hroj.GA
GNasypu ti do Apostele
F#včely bodaGvý,
Gmožná že tě Avopíchaj,
F#mě už to nebaví.

HDám si sedm piv a Gjednu zelenou,
Hchvíli po desátý Gmyslim na jinou,
Hvést ty tupý kecy Guž mě nebaví,
tak Hahoj, já jdu Gpryč.

Přestaneš se usmívat a stavět příjemnou,
dojde ti že ztratila si vládu nade mnou.
Zbydou ti jen rybičky a kočky prašivý,
snad tě budou poslouchat,
mě už to nebaví.

Dám si sedm piv a jednu zelenou,
chvíli po desátý myslim na jinou,
vést ty tupý kecy už mě nebaví,
tak ahoj, já jdu pryč.

Sólo:
H G
E |-------------------------------|--------------------------------|
H |-------------------------------|--------------------------------|
G |9--7--9----9-9b11r9p7---7----9-|9b11r9p7---7-9-7-9b11--9b11~~~~~|
D |----------------------9--------|---------9----------------------|
A |-------------------------------|--------------------------------|
E |-------------------------------|--------------------------------|

A H G A
E |------------------------------------|---------------------------|
H |------------------------------------|---------------------------|
G |9b11r9p7---7----9-9b11r9p7---7----9-|---------------------------|
D |---------9-----------------9--------|9b11r9p7-------------------|
A |------------------------------------|---------9-7---------------|
E |------------------------------------|--------------10-----7~~~~~|

H G
E |-----------------------------|-------------------------------|
H |-----------------------------|-------------------------------|
G |-----------------------------|--7-----7---9b11--9b11~~~~~~~~~|
D |--------------------7-9----9-|9---9-9---9--------------------|
A |-------7----9-9p7h9----------|-------------------------------|
E |7h-10------------------------|-------------------------------|

A H G A
E |------------------------------------|---------------------------||
H |------------------------------------|--------------10----------||
G |9b11r9p7---7----9-9b11r9p7---7----9-|7tr9-----------------------||
D |---------9-----------------9--------|---------------------------||
A |------------------------------------|---------------------------||
E |------------------------------------|---------------------------||

Vytáhneš si žihadlo a vemeš kurví kroj,
napuchlej ksicht odalisky schováš za závoj.
Někde dole ve městě zas chlapa oslovíš,
vezme si jen troje slipy,
vždyť to sama víš.

Dám si sedm piv a jednu zelenou,
chvíli po desátý myslim na jinou,
vést ty tupý kecy už mě nebaví,
tak ahoj, já jdu pryč.

Ďalšie piesne z albumu

Deset černejch piv

Tři Sestry

Ta naše rytmika

Tři Sestry

Had stupid

Tři Sestry

Pěší zóna

Tři Sestry

letní den

Tři Sestry

Krámy

Tři Sestry

Večírek

Tři Sestry

Novinky v katalógu

Najpopulárnejšie piesne interpreta

Prúša

Tři Sestry

Dá dá dá

Tři Sestry

A bude mi blbě

Tři Sestry

Pijánovka

Tři Sestry

Titanic

Tři Sestry

Mexiko

Tři Sestry

Sovy v mazutu

Tři Sestry

Život je takovej

Tři Sestry

Modlitba pro partu

Tři Sestry

AIDA

Tři Sestry

Akordy

C C# D D# Es E F F# G G# As A A# B H 

Najčítanejšie