U2: Akordy k piesni I Still Haven't Found What I'm Looking For

Upraviť pieseň
Interpret: U2

Dĺžka piesne: 04:37



U2 - I Still Haven't Found What I'm Looking For (akordy)

Transpozícia ( -2 -1 0 +1 +2 )



Intro (MUTED):
E-----------------------------------------------------------------------------
B-----------------------------------------------------------------------------
G-7-7-7-7-7---7-7-7-7-7-------------------------------------------------------

E--------------------------------------------------9--------------------------
B------10-10-10-----10-10-10-----10-10-10-----10-10-10------------------------
G----7------7-----7------7-----7------7-----7---------------------------------
D--0------------0------------0------------0-----------------------------------

E-2--2--2--3--3--3-----3--3--3--2-----2-----2--2--2--3-----3-----3--3--3--2---
B-3--3--3--3--3--3-----3--3--3--3-----3-----3--3--3--3-----3-----3--3--3--3---
G-2--2--2--2--2--2-----2--2--2--2-----2-----2--2--2--0-----0-----0--0--0--2---



I have Cadd9climbed highest mountains I have run through the fields
Only to be with you Cadd9Only to be with you
I have run, I have crawled I have sealed these city walls
These Fadd9city walls Only Cadd9to be with you
But I Gsusstill_______ haveC/Fn’t found Cwhat I’m looking for
But I Gsusstill_______ haveC/Fn’t found Cwhat I’m looking for
I have Cadd9kissed honey lips Felt the healing fingertips
It burFadd9ned like fire Cadd9This burning desire
I have spoke with the tongue of angels I have held the hand of the devil
It was Fadd9warm in the night Cadd9I was cold as a stone
But I Gsusstill_______ haveC/Fn’t found Cwhat I’m looking for
But I Gsusstill_______ haveC/Fn’t found Cwhat I’m looking for
Cadd9I believe in the kingdom come
Then all the colors will bleed into one
Bleed Fadd9into one Cadd9But yes, I’m still runnnin’
Broke the bonds and loosened the chains Carry the cross of my shame
Of my Fadd9shame You Cadd9know I believe it
But I Gsusstill_______ haveC/Fn’t found Cwhat I’m looking for
But I Gsusstill_______ haveC/Fn’t found Cwhat I’m looking for


E--0-3-3p0----5-3-3-0----0-3-3p0----5-3-3-0----0-------------0------------
B------------------------------------------------3-1-3-1-1-----3-1-3-1-1--
(I have climbed...) (Only to be...)
E--------3-----1p0--------------------------------------------------------
B--1--1------------1---------------1-1-1----------------------------------
G------------------------------2-2----------------------------------------
(But I still...) (...what I’m looking for)

Ďalšie piesne z albumu

Novinky v katalógu

Najpopulárnejšie piesne interpreta

Akordy

C C# D D# Es E F F# G G# As A A# B H 

Najčítanejšie