UDG: Akordy k piesni Motýl

Upraviť pieseň
Interpret: UDG


UDG - Motýl (akordy)

Transpozícia ( -2 -1 0 +1 +2 )



Intro:2x
e|----------------------------------|-------------------------------|
b|----------------------------------|-------------------------------|
g|----------------------5-------7---|----------------------5--------|
d|-----2-------5------5---5---7---7-|-----2-------5------5---5------|
a|---2---2---5---5--3-------5-------|---2---2---5---5--3------------|
e|-0-------3------------------------|-0-------3----------------3--5-|


Sloka:(hrát to samé jako v intru)
Můj vlastní anděl mě kazí,
včera mi připálil,
dneska mě opil,
než jsme se oblékli byli jsme nazí.
Z anděla se stal Motýl

Ref1:
EBije mě Gkřídly,
Cněco mi Dvezme,
něco Edá.
Bije mě Gkřídly,
Cchvíli jsem Dulita
EBije mě Gkřídly,
Cchvíli jsem Dulita
EBojím se,
Gže sem to jáC....Motýl

Ref2:
EJsem motýl nech mě tak
GJsem motýl nechej mě takC, D
EJsem motýl nech mě tak
GJsem motýl nechej mě takA, C
tak - tak

EJsem motýl nech mě tak
GJsem motýl nechej mě takC, D
EJsem motýl nech mě tak
GJsem motýl nechej mě takA, C
Nechte mě tak, tak, tak, tak, tak


Solo:
e|------------------------------------------------------------------------|
b|--------------------------8--10--10---------8--10-10---------8--10-10---|
g|--7--9-9-7--9-9-9--7-7---------------7--9-9----------7-7-7-7------------|
d|-----------------------9------------------------------------------------|
a|------------------------------------------------------------------------|
e|------------------------------------------------------------------------|

e|------------------------------------------------------------------------|
b|--------------------------8--10--10---------8--10-10--------------------|
g|--7--9-9-7--9-9-9--7-7---------------7--9-9-----------7-----------------|
d|-----------------------9------------------------------------------------|
a|------------------------------------------------------------------------|
e|------------------------------------------------------------------------|



Sloka:(hrát to samé jako v intru)
Můj vlastní anděl je bohém
Na křídlech letadel pije a kouří
Kvůli mně hádá se s bohem – anděly
Snad oči přimhouříš

Ref1:
Bije mě křídly
Něco mi vezme něco dá
Bije mě křídly
Chvíli sem ulítá
Bije mě křídly
Najednou promění tón
Jsem to já nebo on – motýl

Ref2
Jsem motýl nech mě tak
Jsem motýl nechej mě tak
Jsem motýl nech mě tak
Jsem motýl nechte mě tak

Jsem motýl nech mě tak
Jsem motýl nechej mě tak
Jsem motýl nech mě tak
Jsem motýl nechte mě tak

EA já už nejsem
GUž nejsem motýl mi ustřihly mí křídla
CA já už nejsem
DUž nejsem motýl mě pár dní jenom zbývá
EA já už nejsem
DUž nejsem motýl mi ustřihly mí křídla
CA já už nejsem
DUž nejsem motýl mě pár dní jenom zbýváE



Ďalšie piesne z albumu

Novinky v katalógu

Najpopulárnejšie piesne interpreta

Akordy

C C# D D# Es E F F# G G# As A A# B H 

Najčítanejšie