Uriah Heep: Akordy k piesni Come Away Melinda

Upraviť pieseň
Interpret: Uriah Heep


Uriah Heep - Come Away Melinda (akordy)

Transpozícia ( -2 -1 0 +1 +2 )



Intro: H
E ---7--5-7---------5--3-5-2----7--5-7---------------5----------
h-----------5-7-8-5--------------------5--8--7-----7------------
g------------------------------------------------8--------------
d----------------------------------------------9----------------



Emi Daddy, Ddaddy, come and look,C see what DI have found
Emi A little Dways away from here,C while Emidigging in the groundX1

G Come aDway Melinda,Hmi come in and FISMIclose the door
G It's nothing,D just a picture-book,Hmi they Gmihad before the Hmiwar..

Daddy, daddy, come and see
Daddy, come and look
Why, there's four or five little Melinda girls
Inside my picture book

Come away Melinda
Come in and close the door
There were lots of little girls like you
Before they had the war.. Cmi

FmiOh Daddy, DISdaddy, come and see
CIS Daddy, DIShurry do
FmiWhy, there's someone DISin a pretty dress
CISShe's all Fmigrown up like you
Won't you X2tell me why

GIS Come aDISway Melinda,Cmi come in and Gmiclose the door
GIS That someDISone is your MumGmy you GIShad beCfore..

Daddy, daddy, tell me if you can
Why can't things be the way they were
Before the war began

Come away Melinda
Come in and close the door
The answer lies in yesterday
Before they had the war...

První, druhou a čtvrtou sloku brnkat takto:
(Každý akord čtyřikrát vybrnkat)



Emi D C (pak D,Emi,D,C,Emi) X1
e-------0--------2---------0-----------------0---0----
h-----0--------3---------1-------------------0---0----
g------------2---------0---------------------0---0----
d---2------0-------------------------------1----------
a--------------------3-------------------------2------
e-0---------------------------------------------------

X1, X2 - neznám názvy těchto akordů, pokud je znáte, tak je, prosím, opravte.

X1 X2
e--0-----1----
h--0-----1----
g--0-----1----
d--1-----2----
a--2-----3----
e--0-----1----





Ďalšie piesne z albumu

Gypsy

Uriah Heep

July Morning

Uriah Heep

Easy Livin'

Uriah Heep

Blind Eye

Uriah Heep

Sunrise

Uriah Heep

Circus

Uriah Heep

Return to Fantasy

Uriah Heep

Universal Wheels

Uriah Heep

Bird of Prey

Uriah Heep

Stealin'

Uriah Heep

Between Two Worlds

Uriah Heep

I Hear Voices

Uriah Heep

Novinky v katalógu

Najpopulárnejšie piesne interpreta

Lady In Black

Uriah Heep

July Morning

Uriah Heep

THE HANGING TREE

Uriah Heep

Gypsy

Uriah Heep

Come Back to Me

Uriah Heep

Easy Livin'

Uriah Heep

Rain

Uriah Heep

Wonderworld

Uriah Heep

The Wizard

Uriah Heep

Firefly

Uriah Heep

Akordy

C C# D D# Es E F F# G G# As A A# B H 

Najčítanejšie