Volant: Akordy k piesni Sněženky a bledule

Upraviť pieseň
Interpret: Volant


Volant - Sněženky a bledule (akordy)

Transpozícia ( -2 -1 0 +1 +2 )



Volant – Sněženky a bledule (tabbed by Neckbis)

intro: Emi, C, G
C, D, G
Emi, C, G
C, D, G

Emi C G C D G Emi C G C D G
e-------------------0-0-0-0----------------------------0-0-0-0-2-2-3---
B--0-0-0-0-----3------------3---0-----0-0-0-0-----3--------------------
G----------2-0----------------2---------------2-0----------------------
D----------------------------------------------------------------------
A----------------------------------------------------------------------
E----------------------------------------------------------------------

Emi C G C D G Emi C G C D G
e-------------------0-0-0-0----------------------------0-0-0-0-2-2-3---
B--0-0-0-0-----3------------3---0-----0-0-0-0-----3--------------------
G----------2-0----------------2---------------2-0----------------------
D----------------------------------------------------------------------
A----------------------------------------------------------------------
E----------------------------------------------------------------------



EmiSněženky a CbleduGle
Cstejně jako DminuGle
Emistejně jako CminuGle
Copijú se Ddo smúGle

Pak vyčúram se jak se patří
v třetím patře v medzipatří
když domovník mě náhle spatří
nediví sa pijú za tři


Emi C G C D G Emi C G C D G
e-------------------0-0-0-0----------------------------0-0-0-0-2-2-3---
B--0-0-0-0-----3------------3-3-0-----0-0-0-0-----3--------------------
G----------2-0--------------------------------2-0----------------------
D----------------------------------------------------------------------
A----------------------------------------------------------------------
E----------------------------------------------------------------------

Emi C G C D G Emi C G C D G
e-------------------0-0-0-0----------------------------0-0-0-0-2-2-3-3-3-3---
B--0-0-0-0-----3------------3-3-0-----0-0-0-0-----3--------------------------
G----------2-0--------------------------------2-0----------------------------
D----------------------------------------------------------------------------
A----------------------------------------------------------------------------
E----------------------------------------------------------------------------



EmiSněženky a CbleduGle
Cstejně jako DminuGle
Emistejně jako CminuGle
Copijú se Ddo smúGle

Pak vyčúram se jak se patří
v třetím patře v medzipatří
když domovník mě náhle spatří
nediví sa pijú za tři

Ďalšie piesne z albumu

Má milá

Volant

Nanananá

Volant

Tak akorát

Volant

Vrzly dveře

Volant

Polka

Volant

Novinky v katalógu

Najpopulárnejšie piesne interpreta

Akordy

C C# D D# Es E F F# G G# As A A# B H 

Najčítanejšie