Who: Akordy k piesni Dangerous

Upraviť pieseň
Interpret: Who


Who - Dangerous (akordy)

Transpozícia ( -2 -1 0 +1 +2 )



intro; synth (ARR FOR GUITAR) AND BASS

C5 C5
|----------------------|------------------------|
|----------------------|------------------------|
|----------------------|------------------------|
|-5--5-3---------------|-5--5-3-----------------|
|-3------7-3-----------|-3------7-3-------------|
|----------------------|------------------------|
| | |
|----------------------|------------5-7-9-10-12-|
|------------------3-5-|-5----------------------|
|------------3-5-7-----|------------------------|
|----------------------|------------------------|

C5 C5
|--------------------|----------------------|
|--------------------|----------------------|
|--------------------|----------------------|
|-5--5-3-------------|-5--5-3---------------|
|-3------7-3---------|-3------7-3-----------|
|--------------------|----------------------|
| | |
|-----------12/10-9--|----------------------|
|-12---------------8-|-8---------8\\\\--|
|--------------------|----------------------|
|--------------------|----------------------|


Ab/C Gm/C F/C G/C

Ab/C Gm/C F/C G/C

F/C C F/C C G/C
Can you feel ...
C F/C C F/C C G/C
In the darkness, ...
F/C C
Like a ...
Ab Gm/C F F/C C
Fear is ...

The beachhead is ....

F/C C7
That makes ...
C F5 G5 Am G/B
So da...
C
To your....

C G/C C

C5 C5 C5 C5
intro pattern

Ab/C Gm/C F/C
Can you feel it ....
G/C
Watching you, ...
Ab/C Gm/C
Can you feel it ...
F/C G/C
Watching you...
Changing you into a...

F/C C F/C C G/C F/C C
Mad dog, howling ...
F/C C G/C F/C C
And you're so .....
Ab/C Gm/C F
Better learn ...

Fences, we put ....

And that makes us ....

BRIGE
F C/D Eb/C Gm/D F/C
This is a jungle, ...
C Eb/C F/C
Jungle ...
Ab/C G/D F/C G/D F/C
We are the next step ....
Dm9 Eb/C F/C Eb/C
The new stone ...
F/C Eb/C F/C Eb/C
Back to the ...
F/C Bb/C
No sol....


C5 C5 C5 C5
intro pattern

Ab/C Gm/C F/C
Can you feel it in ...
G/C
Watching you..
Ab/C G/C F/C
Can you feel it as ...
Follow you, ...
Ab/C Gm/C
Can you feel it? ....
Ab/C F/C
Can you feel it? (..
Ab/C Gm/C
Can you feel it? (...
Bb/C C Cm7 C
Fear is the ....



Ďalšie piesne z albumu

Novinky v katalógu

Najpopulárnejšie piesne interpreta

Akordy

C C# D D# Es E F F# G G# As A A# B H 

Najčítanejšie