Beatles: Akordy k piesni Honey Pie

Upraviť pieseň
Interpret: Beatles


Beatles - Honey Pie (akordy)

Transpozícia ( -2 -1 0 +1 +2 )


INTRO:(Piano)

EMShe A6was a AM/Dworking girl
CMNorth of England wayG
EMNow A6she's AM/Din the big time
CMIn the USAG
A7And if she could only hear me
D7This is what I'd say:


GHoney Pie
You are making me
EB7Crazy
E7I'm in love but I'm
A7Lazy
D7So won't you please come
GHome
EB7 D7 Oh

GHoney Pie
My position is
EB7Tragic
E7Come and show me the
A7Magic
D7Of your Hollywood
GSong
F# F

EMYou became a leC#M7gend of the silGver screen
G7And now the Cthought of meeting you
E7/Bmakes me weak in the kneesAM D7 Oh

GHoney Pie
You are driving me
EB7frantic
E7Sail across the Atlan-
A7tic
D7To be where you belong G
Honey EB7Pie,
come D7back to me

SOLO:

-|----------------------------|---------------7---8---7------
-|-----15---------------------|-----------8---------------8--
-|-16-------------------------|------------------------------
-|-----------17---------------|------------------------------
-|----------------------------|------------------------------
-|----------------------------|------------------------------

-|-------------8---9--11--12--|-14-------------13p12---------
-|---------8------------------|------------------------------
-|-8---8----------------------|------------------------------
-|----------------------------|------------------------------
-|----------------------------|------------------------------
-|----------------------------|------------------------------


(Piano solo)

|A7 |D7 |G |Eb7 D7 |G | |

|Eb7 |E7 |A7 |D7 |G |F# F |


EMWill the wind that blewC#M7
her boat across Gthe sea
G7
Ckindly send her
E7/BSailing back to me AM
D7T. T. Tee! Now

GHoney Pie
You are making me
EB7crazy
E7I'm in love but I'm la-
A7zy
D7So won't you please come home
GCome, come back to EB7me Honey D7Pie, Ha ha ha

OUTRO:

|G |Eb7 |E7 |A7 |D7 |G |Eb7 D |G |

Ďalšie piesne z albumu

Novinky v katalógu

Najpopulárnejšie piesne interpreta

Yesterday

Beatles

Let It Be

Beatles

Hey Jude

Beatles

Michelle

Beatles

Help!

Beatles

Come Together

Beatles

Akordy

C C# D D# Es E F F# G G# As A A# B H 

Najčítanejšie