Beatles: Akordy k piesni Taxman

Upraviť pieseň
Interpret: Beatles


Beatles - Taxman (akordy)

Transpozícia ( -2 -1 0 +1 +2 )


VERSE:

Let D7me tell you how it will be D7#9 D7

There's one for you nineteen for meD7#9 D7

'Cos I'm the taxC7man Yeah I'm G7#9the taxmD7an


Should five percent appear too small

Be thankful I don't take it all

'Cos I'm the taxman Yeah I'm the taxman


BRIDGE:

If you drDive a truck I'll tax the street

If you try to fix it I'll tCax your seat

If you gDet too cold I'll tax the heat

If you take a walk I'll tCax your feet TaxDman!


GUITAR SOLO:

e|---------------------------------------------------10----------------
B|--------------------------------6--8--b(9)8--6-----------------------
G|-----7-----7-----7-----7-----7------------------7--------------------
D|--0-----0-----0-----0-----0------------------------------------------
A|---------------------------------------------------------------------
E|---------------------------------------------------------------------


e|---------------------------------------------------------------------
B|-----9p8--9p8--6-----------------------------------------------------
G|--7---------------7--7--5h7p5--6--4h6p4--5--2h4p2--------------------
D|---------------------------------------------------------------------
A|---------------------------------------------------------------------
E|---------------------------------------------------------------------


e|------------------------------------------------------------10-------
B|-----------------------8--6-----6-----6-----6--b(9)8--6--------------
G|--2--4--5--7-----7-----------7-----7-----7---------------7-----------
D|--------------0-----0------------------------------------------------
A|---------------------------------------------------------------------
E|---------------------------------------------------------------------


'Cos I'm the taxCman Yeah I'm G7#9the taxmDan


VERSE:

Don't ask me what I want it for (ah ah, Mr. Wilson)

If you don't want to pay some more (ah ah, Mr. Heath)

'Cos I'm the taxman Yeah I'm the taxman

e|--------------------------------------------------------------------------
B|--------------------------------------------------------------------------
G|-------------------5---------3--5-----5---------3--5----------------------
D|----------------------3--h5--------------3--h5-----------5---------3b(4)--
A|----------------3------------------3------------------------3--h5---------
E|------------------------------------------------------3-------------------


VERSE:

Now my advice for those who die (Taxman!)

Declare the pennies on your eyes (Taxman!)

'Cos I'm the taxman Yeah I'm the taxman


And you're working for no one but me


e|--------------------------------------------------------------
B|--------------/6-----/6-----/6-----/6-------------------------
G|------------------5------5------5------5------7---------5--7-- (repeat
D|-------------------------------------------------5--h7-------- guitar
A|-------------------------------------------5------------------ solo)
E|--------------------------------------------------------------





Ďalšie piesne z albumu

Novinky v katalógu

Najpopulárnejšie piesne interpreta

Yesterday

Beatles

Let It Be

Beatles

Hey Jude

Beatles

Michelle

Beatles

Come Together

Beatles

Help!

Beatles

Akordy

C C# D D# Es E F F# G G# As A A# B H 

Najčítanejšie