Desmod: Akordy k piesni Diagnóza

Upraviť pieseň
Interpret: Desmod


Desmod - Diagnóza (akordy)

Transpozícia ( -2 -1 0 +1 +2 )



intro: EM, C, EM, C, AM, F

EMNemý čašník Cvisí v skrini
EMSlepý zverák Cna noviny
AMMá hluché tykadF
EMPlagát fajčí Cčiasi ruka
EMZ vane sneží Cdo klobúka Amnám
Jogurt sedí Fsám

®:EMRyba trúbi do Cblondíny
EMdoktor vraví, Cže som iný
AMiný ako mám Fbyť
on sa DMmusel asi Fzblázniť

Tanier hadže pózy z okna
V kohútiku škvrna ropná spí
Pozor pes je zlý
Erotický balkón v krku
Vlašský šalát do výfuku dám
Never uzlinám

®:2x

solo:



Em C Em C



e:-------------------------------------------------------|

H:-------------------------------------------------------|

G:-/9~--9-9-12-9----9~---9-9-12-9----9~---9-9-12-9----9~-|

D:---------------12---------------12---------------12----|

A:-------------------------------------------------------|

E:-------------------------------------------------------|

Am F

e:---------------------------------------------------------------------|

H:---------------------------------------------------------------------|

G:-9-12-9---9-12/14--14-14-16-14----14~--14-14-16----14-16/19-19-16-14-|

D:-------------------------------17---------------17-------------------|

A:---------------------------------------------------------------------|

E:---------------------------------------------------------------------|





Víno líže zvonce koní
Trúba, želé, vývar sloní
Mám z pečienky len rám

®:2x

Ďalšie piesne z albumu

Novinky v katalógu

Najpopulárnejšie piesne interpreta

Akordy

C C# D D# Es E F F# G G# As A A# B H 

Najčítanejšie