Foo Fighters: Akordy k piesni Bridge Burning

Upraviť pieseň
Interpret: Foo Fighters

Dĺžka piesne: 04:46



Foo Fighters - Bridge Burning (akordy)

Transpozícia ( -2 -1 0 +1 +2 )


Tuning: Standard

Yet another superb song off the Foo Fighter's new album
"Wasting Light".
I could only get some parts of what Pat plays but the
rest off his parts are more or less a variation of
what the others play.

Guitar 1 - Dave Grohl
Guitar 2 - Chris Shiflett
Guitar 3 - Pat Smear


Intro
Guitar 1 x8
e|-----------------------------------|
B|-----------------------------------|
G|----x-x---x-x---x-x-x---x-x---x-x--|
D|----x-x---x-x---x-x-x---x-x---x-x--|
A|----x-x---x-x---x-x-x---x-x---x-x--|
E|--9-x-x-9-x-x-9-x-x-x-9-x-x-9-x-x--|
| |
| Guitar 2 x4 |
e|-----------------------------------|
B|-----------------------------------|
G|-----------------------------------|(Comes in after guitar
D|-----------------------------------| 1 plays 4 times)
A|--5-7-5-7-5-7-5-7-5-7----5-7-------|
E|----------------------0------0-----|
|pm. . . . . . . . . . . . . . |
| |
| Guitar 3 x2 |(Comes in after guitar 2
e|-----------------------------------| plays 2 times)
B|-----------------------------------|
G|-----------------------------------| (They could be hammering
D|-----------------------------------| these on but just play
A|--5-7-5-7-5-7-5-7-5-7----5-7-------| however feels best to
E|----------------------0------0-----| you.)


Intro 2
Guitar 1 x4
e|--------------------------------------------|
B|--------------------------------------------|
G|--------------------------------------------|
D|--------------------------------------------|
A|--------------------------------------------|
E|--10-12-10-12-10-12-10-12-10-12-0--10-12-0--|
| |
| Guitars 2 & 3 x4 |
e|--------------------------------------------|
B|--------------------------------------------|
G|--------------------------------------------|
D|--------------------------------------------|
A|--5-7-5-7-5-7-5-7-5-7----5-7----------------|
E|----------------------0------0--------------|






(Guitar 1) x2
e|---------------------------------------------------------------------------|
B|---------------------------------------------------------------------------|
G|----------------------------------5-5-5-5-----------------7-7-7-7----------|
D|----------------------------------5-5-5-5-5-5-5-5-7-7-7-7-7-7-7-7----------|
A|----------------------------------3-3-3-3-5-5-5-5-7-7-7-7-5-5-5-5----------|
E|----------------------------12\-----------3-3-3-3-5-5-5-5------------------|
| These are my famous last words! |
| |
| (Guitar 2) x2 |
e|---------------------------------------------------------------------------|
B|---------------------------------------------------------------------------|
G|--9-9--9-8-8--8-7-7--7-6-6--------5-5-5-5-----------------7-7-7-7----------|
D|--x-x--x-x-x--x-x-x--x-x-x--------5-5-5-5-5-5-5-5-7-7-7-7-7-7-7-7----------|
A|--7-7--7-6-6--6-5-5--5-4-4--------3-3-3-3-5-5-5-5-7-7-7-7-5-5-5-5----------|
E|----------------------------12\-----------3-3-3-3-5-5-5-5------------------|
These are my famous last words!


Verse 1 On the last time Chris stops palm muting.(I tried lining the guitars up)
(Guitar 1)
e|-------------------------------------------------------------------|
B|-------------------------------------------------------------------|
G|-------------------------------------------------------------------|
D|------5-------5-------5-------5-------5-------5-------5-------5----|
A|-------------------------------------------------------------------|
E|-------------------------------------------------------------------|
| |
| (Guitar 2) |
e|-------------------------------------------------------------------|
B|-------------------------------------------------------------------|
G|--9-9-9-998-8-8-887-7-7-776-6-6-665-5-5-55----------------7-7-7-77-|
D|--9-9-9-998-8-8-887-7-7-776-6-6-665-5-5-555-5-5-557-7-7-777-7-7-77-|
A|--7-7-7-776-6-6-665-5-5-554-4-4-443-3-3-335-5-5-557-7-7-775-5-5-55-|
E|------------------------------------------3-3-3-335-5-5-55---------|
pm . . . ... . . ... . . ... . . ... . . ... . . ... . . ... . . ..


(Guitar 1) +
e|------------------------------------------------------------------|
B|----------------------------------------------------------5-------|
G|------------------------------------------------------------------|
D|------5-------5-------5-------5-------5-------5-------5-----------|
A|------------------------------------------------------------------|
E|--------------------------------------------------------------12\-|
| |
| (Guitar 2) |
e|------------------------------------------------------------------|
B|------------------------------------------------------------------|
G|-9-9-9-998-8-8-887-7-7-776-6-6-665-5-5-55-------------------------|
D|-9-9-9-998-8-8-887-7-7-776-6-6-665-5-5-555-5-5-557-7-7-7----------|
A|-7-7-7-776-6-6-665-5-5-554-4-4-443-3-3-335-5-5-557-7-7-7----------|
E|-----------------------------------------3-3-3-335-5-5-5------12\-|
pm . . . ... . . ... . . ... . . ... . . ... . . ... . . .



Pre-Chorus
Guitar 1 (Not too sure on this but I think he's just playing a G chord like this)
e|---3---| |-------------------|
B|---3---| Then played >|-------------------|
G|---4---| with the >|--8-8-8-8-8-8-8-8--|
D|---5---| others >|--8-8-8-8-8-8-8-8--|
A|---x---| |--6-6-6-6-6-6-6-6--|
E|---3---| |-------------------|

Guitar 2
e|----------------------------------------------------------------------------|
B|----------------------------------------------------------------------------|
G|--12--12-12-12-12-11-11-11-11-12-12-12-12-14-14-12--12-12-12-12-11-11-11-11-|
D|--x---x--x--x--x--x--x--x--x--x--x--x--x--x--x--x---x--x--x--x--x--x--x--x--|
A|--10--10-10-10-10-9--9--9--9--10-10-10-10-12-12-10--10-10-10-10-9--9--9--9--|
E|----------------------------------------------------------------------------|

e|-----------------------------------------------------------------|
B|-----------------------------------------------------------------|
G|-12-12-12-12-11-9--12--12-12-12-12-11-11-11-11-12-12-12-12-14-14-|
D|-x--x--x--x--x--x--x---x--x--x--x--x--x--x--x--x--x--x--x--x--x--|
A|-10-10-10-10-9--7--10--10-10-10-10-9--9--9--9--10-10-10-10-12-12-|
E|-----------------------------------------------------------------|

e|-----------------------------------------|
B|-----------------------------------------|
G|-12--12-12-12-12-11-11--8-8-8-8-8-8-8-8--|
D|-x---x--x--x--x--x--x---8-8-8-8-8-8-8-8--|
A|-10--10-10-10-10-9--9---6-6-6-6-6-6-6-6--|
E|-----------------------------------------|


Guitar 3
e|-------------------------------------------------------|
B|-------------------------------------------------------|
G|-------------------------------------------------------|
D|--10~----7~----10~----12~-----13-13-13-13-13-13-13-13--|
A|--10~----7~----10~----12~-----13-13-13-13-13-13-13-13--|
E|--8~-----5~----8~-----10~-----11-11-11-11-11-11-11-11--|



Chorus
Guitar 1 x2
e|----------------------------------------------------------------------------|
B|----------------------------------------------------------------------------|
G|--9--9-9-9-9-9-9-9-9-9-9-9-9-9-9-11--11-11-11-11-11-11-11-11-11-11-11-11-11-|
D|--x--x-x-x-x-x-x-x-x-x-x-x-x-x-x-x---x--x--x--x--x--x--x--x--x--x--x--x--x--|
A|--7--7-7-7-7-7-7-7-7-7-7-7-7-7-7-9---9--9--9--9--9--9--9--9--9--9--9--9--9--|
E|--0--0-0-0-0-0-0-0-0-0-0-0-0-0-0--------------------------------------------|

e|-----------------------------------------------------------------------------|
B|-----------------------------------------------------------------------------|
G|-12--12-12-12-12-13--13-13-13-13-13-13-13-13-12--12-12-12-12-13--13-13-13-13-|
D|-x---x--x--x--x--x---x--x--x--x--x--x--x--x--x---x--x--x--x--x---x--x--x--x--|
A|-10--10-10-10-10-11--11-11-11-11-11-11-11-11-10--10-10-10-10-11--11-11-11-11-|
E|-----------------------------------------------------------------------------|

e|--------------|
B|--------------|
G|-13-13-13-13--|
D|-x--x--x--x---|
A|-11-11-11-11--|
E|--------------|


Guitar 2 x2
e|---------------------------------------------------------------------------|
B|---------------------------------------------------------------------------|
G|--9--9-9-9-9-9-9-9-9-9-9-9-9-9-9-7--7-7-7-7-7-7-7-7-7-7-7-7-7-7-5--5-5-5-5-|
D|--9--9-9-9-9-9-9-9-9-9-9-9-9-9-9-7--7-7-7-7-7-7-7-7-7-7-7-7-7-7-5--5-5-5-5-|
A|--7--7-7-7-7-7-7-7-7-7-7-7-7-7-7-5--5-5-5-5-5-5-5-5-5-5-5-5-5-5-3--3-3-3-3-|
E|---------------------------------------------------------------------------|

e|----------------------------------------------------------|
B|----------------------------------------------------------|
G|-9--9-9-9-9-9-9-9-9-----------------9--9-9-9-9-9-9-9-9-9--|
D|-9--9-9-9-9-9-9-9-9-10--10-10-10-10-9--9-9-9-9-9-9-9-9-9--|
A|-7--7-7-7-7-7-7-7-7-10--10-10-10-10-7--7-7-7-7-7-7-7-7-7--|
E|-0--0-0-0-0-0-0-0-0-8---8--8--8--8--0--0-0-0-0-0-0-0-0-0--|



Post Chorus
Guitar 1
e|------------------------------------------------------------------------------------|
B|------------------------------------------------------------------------------------|
G|-12--12-12-12-12-13--13-13-13-13-13-13-13-13----------------------------------------|
D|-x---x--x--x--x--x---x--x--x--x--x--x--x--x--12-12-12-12-12-12-12-12-12-12-12-12-12-|
A|-10--10-10-10-10-11--11-11-11-11-11-11-11-11-12-12-12-12-12-12-12-12-12-12-12-12-12-|
E|---------------------------------------------10-10-10-10-10-10-10-10-10-10-10-10-10-|

e|-----|
B|-----|
G|-----|
D|-13--|
A|-13--|
E|-11--|


Guitar 2
e|-------------------------------------------------------------------|
B|-------------------------------------------------------------------|
G|-----------------9--9-9-9-9-9-9-9-9-7-7-7-7-7-7-7-7-7-7-7-7-7-7-8--|
D|-10--10-10-10-10-9--9-9-9-9-9-9-9-9-7-7-7-7-7-7-7-7-7-7-7-7-7-7-8--|
A|-10--10-10-10-10-7--7-7-7-7-7-7-7-7-5-5-5-5-5-5-5-5-5-5-5-5-5-5-6--|
E|-8---8--8--8--8--0--0-0-0-0-0-0-0-0--------------------------------|


Intro 2 x2 (One guitar slides down on the E sting instead of playing the E)

Verse 2 x1 Same as verse 1


Verse 3
All guitars x2
e|-----------------------------------------------------------------|
B|-----------------------------------------------------------------|
G|--9--9-9-9-8-8-8-8-7-7-7-7-6-6---5--5-5-5-----------------7-7-7--|
D|--9--9-9-9-8-8-8-8-7-7-7-7-6-6---5--5-5-5-5-5-5-5-7-7-7-7-7-7-7--|
A|--7--7-7-7-6-6-6-6-5-5-5-5-4-4---3--3-3-3-5-5-5-5-7-7-7-7-5-5-5--|
E|------------------------------------------3-3-3-3-5-5-5-5--------|

Pre-chorus

Chorus x2

Bridge
Guitar 1 x2
e|-----------------------------------------------------------------|
B|---------------------------------3-3-3-3-3-3-3-3-3-3-3-3-3-3-3-3-|
G|-1-1-1-1-1-1-1-1-1-1-1-1-1-1-1-1-2-2-2-2-2-2-2-2-2-2-2-2-2-2-2-2-|
D|-2-2-2-2-2-2-2-2-2-2-2-2-2-2-2-2-0-0-0-0-0-0-0-0-0-0-0-0-0-0-0-0-|
A|-2-2-2-2-2-2-2-2-2-2-2-2-2-2-2-2---------------------------------|
E|-0-0-0-0-0-0-0-0-0-0-0-0-0-0-0-0---------------------------------|

e|------------------------------------------------------------------|
B|-1-1-1-1-1-1-1-1-1-1-1-1-1-1-1-1-3-3-3-3-3-3-3-3-4-4-4-4-4-4-4-4--|
G|-0-0-0-0-0-0-0-0-0-0-0-0-0-0-0-0-2-2-2-2-2-2-2-2-3-3-3-3-3-3-3-3--|
D|-2-2-2-2-2-2-2-2-2-2-2-2-2-2-2-2-0-0-0-0-0-0-0-0------------------|
A|-3-3-3-3-3-3-3-3-3-3-3-3-3-3-3-3----------------------------------|
E|------------------------------------------------------------------|

Guitar 2 x2
e|--------------------------------------------------------------------------|
B|--12----12----12----12----12----12----12----12----10----10----10----10----|
G|--14b16-14b16-14b16-14b16-14b16-14b16-14b16-14b16-12b14-12b14-12b14-12b14-|
D|--------------------------------------------------------------------------|
A|--------------------------------------------------------------------------|
E|--------------------------------------------------------------------------|

e|-------------------------------------------------------------------------|
B|-10----10----10----10----8-----8-----8-----8-----8-----8-----8-----8-----|
G|-12b14-12b14-12b14-12b14-10b12-10b12-10b12-10b12-10b12-10b12-10b12-10b12-|
D|-------------------------------------------------------------------------|
A|-------------------------------------------------------------------------|
E|-------------------------------------------------------------------------|

e|--------------------------------------------------|
B|-10----10----10----10----11----11----11----11-----|
G|-12b14-12b14-12b14-12b14-13b15-13b15-13b15-13b15--|
D|--------------------------------------------------|
A|--------------------------------------------------|
E|--------------------------------------------------|


Guitar 3 (played through the whole bridge)
e|-----------------------------------|
B|-----------------------------------|
G|-----------------------------------|
D|-----------------------------------|
A|--5-7-5-7-5-7-5-7-5-7-5-7-5-7-5-7--|
E|-----------------------------------|


Intro 2 with Guitar 1 sliding down on the E string again

Chorus x4

Post Chorus

Intro 2 x2

End with
All guitars
e|---------------------------------------------------------------|
B|---------------------------------------------------------------|
G|---------------------------------------------------------------|
D|---------------------------------------------------------------|
A|--5-7-5-7-5-7-5-7-5-7-5-7-5-7-5-7-5-7-5-7-5-7-5-7-5-7----5-7---|
E|------------------------------------------------------0-----0--|

Ďalšie piesne z albumu

Rope

Foo Fighters

Dear Rosemary

Foo Fighters

White Limo

Foo Fighters

Arlandria

Foo Fighters

These Days

Foo Fighters

Back & Forth

Foo Fighters

Back & Forth

Foo Fighters

A Matter of Time

Foo Fighters

Miss the Misery

Foo Fighters

I Should Have Known

Foo Fighters

Walk

Foo Fighters

Novinky v katalógu

Najpopulárnejšie piesne interpreta

Best of You

Foo Fighters

Learn to Fly

Foo Fighters

All My Life

Foo Fighters

The Pretender

Foo Fighters

Walk

Foo Fighters

Walking After You

Foo Fighters

DOA

Foo Fighters

Everlong

Foo Fighters

My Hero

Foo Fighters

Big Me

Foo Fighters

Akordy

C C# D D# Es E F F# G G# As A A# B H 

Najčítanejšie