Foo Fighters: Akordy k piesni Cheer Up, Boys (Your Make Up Is Running)

Upraviť pieseň
Interpret: Foo Fighters

Dĺžka piesne: 03:41



Foo Fighters - Cheer Up, Boys (Your Make Up Is Running) (akordy)

Transpozícia ( -2 -1 0 +1 +2 )


Intro

Gtr. 1 (after guitar 2 has play its measure twice)
e|prt1------------------------------ prt2---------------------------------|
B|---------------------------------- -------------------------------------|
G|-9-9-9-9-9-9-9-9-9-9-9-9-9-9-9-9-- x 4 ---------------------2-2-2-2-2-2-|
D|-9-9-9-9-9-9-9-9-9-9-9-9-9-9-9-9-- -------------------------2-2-2-2-2-2-|
A|-7-7-7-7-7-7-7-7-7-7-7-7-7-7-7-7-- ------------------4-5-7--0-0-0-0-0-0-|
E|---------------------------------- -0/12\-0-4-5-7-(0)-------------------|

Gtr 2.
comes in after guitar 1 part one
e||---------------------------------||
B||---------------------------------||
G||--------------------2-2-2-2-2-2--|| x5
D||--------------------2-2-2-2-2-2--||
A||-------------4-5-7--0-0-0-0-0-0--||
E||--0-4-5-7-(0)--------------------||

Both guitars

e||---------||
B||---------||
G||-----2-2-||
D||-4-4-2-2-|| straight into verse
A||-4-4-0-0-||
E||-2-2-----||


Verse 1
Gtr. 1
e||----------------------------------------------------||
B||---------------------------------------3-3-3-3-3-3--||
G||--9-9-9-9-9-9--8-8-8-8-8-8--2-2-2-2-2--2-2-2-2-2-2--|| x 4
D||--9-9-9-9-9-9--9-9-9-9-9-9--2-2-2-2-2--0-0-0-0-0-0--||
A||--7-7-7-7-7-7--6-6-6-6-6-6--0-0-0-0-0---------------||
E||----------------------------------------------------||

Gtr. 2
e||--------------------------------------------------------------------||
B||--------------------------------------------------------------------||
G||--9-9-9-9-9-13-13-13-13br---------------------11-11-11-11-11\9-9-9--|| x 4
D||--x-x-x-x-x--x--x--x--x----11-11-11-11-11-11---x--x--x--x--x-x-x-x--||
A||--7-7-7-7-7-11-11-11-11br---x--x--x--x--x--x---9--9--9--9--9\7-7-7--||
E||--0-------------------------9--9--9--9--9--9------------------------||


Pre chorus
Gtr.1
e||--------------------------||
B||--------------------------||
G||--9-9-9-9-9-9-9-9-9-9-9-9-||
D||--9-9-9-9-9-9-9-9-9-9-9-9-||
A||--7-7-7-7-7-7-7-7-7-7-7-7-||
E||--------------------------||

Gtr. 2
e||---------------------------------||
B||---------------------------------||
G||--------------------2-2-2-2-2-2--|| x3
D||--------------------2-2-2-2-2-2--||
A||-------------4-5-7--0-0-0-0-0-0--||
E||--0-4-5-7-(0)--------------------||


Chorus 1
Gtr. 1
e||-----------------0-0-0-0-2-2-2--3-3-3-----0-0-0-0---||
B||-----------------0-0-0-0-3-3-3--3-3-3-----0-0-0-0---||
G||-------2-2-2-1-1-1-1-1-1-2-2-2--0-0-0-----1-1-1-1---|| x2
D||-4-4-4-2-2-2-2-2-2-2-2-2-0-0-0--0-0-0-2-2-2-2-2-2---||
A||-4-4-4-0-0-0-2-2-2-2-2-2--------2-2-2-2-2-2-2-2-2---||
E||-2-2-2-------0-0-0-0-0-0--------3-3-3-0-0-0-0-0-0---||

Gtr. 2
e||-----------------0-0-0-0--------------------0-0-0-0-||
B||-----------------0-0-0-0--------------------0-0-0-0-||
G||-------2-2-2-----1-1-1-1-7-7-7-12-12-12-9-9-9-9-9-9-|| x2
D||-4-4-4-2-2-2-2-2-2-2-2-2-7-7-7-12-12-12-9-9-9-9-9-9-||
A||-4-4-4-0-0-0-2-2-2-2-2-2-5-5-5-10-10-10-7-7-7-7-7-7-||
E||-2-2-2-------0-0-0-0-0-0----------------------------||


Verse 2
Gtr. 1
e||----------------------------------------------------||
B||---------------------------------------3-3-3-3-3-3--||
G||--9-9-9-9-9-9--8-8-8-8-8-8--2-2-2-2-2--2-2-2-2-2-2--|| x 4
D||--9-9-9-9-9-9--9-9-9-9-9-9--2-2-2-2-2--0-0-0-0-0-0--||
A||--7-7-7-7-7-7--6-6-6-6-6-6--0-0-0-0-0---------------||
E||----------------------------------------------------||

Gtr. 2
e||--------------------------------------------------------------------||
B||--------------------------------------------------------------------||
G||--9-9-9-9-9/13-13-13-13br---------------------11-11-11-11-11\9-9-9--|| x 4
D||--x-x-x-x-x--x--x--x--x----11-11-11-11-11-11---x--x--x--x--x-x-x-x--||
A||--7-7-7-7-7/11-11-11-11b----x--x--x--x--x--x---9--9--9--9--9\7-7-7--||
E||--0-------------------------9--9--9--9--9--9------------------------||

Pre chorus
Gtr.1
e||---------------------------||
B||---------------------------||
G||--9-9-9-9-9-9-9-9-9-9-9-9--||
D||--9-9-9-9-9-9-9-9-9-9-9-9--||
A||--7-7-7-7-7-7-7-7-7-7-7-7--||
E||---------------------------||

Gtr. 2
e||---------------------------------||
B||---------------------------------||
G||--------------------2-2-2-2-2-2--|| x3
D||--------------------2-2-2-2-2-2--||
A||-------------4-5-7--0-0-0-0-0-0--||
E||--0-4-5-7-(0)--------------------||


Chorus 2
Gtr. 1
e||-----------------0-0-0-0-2-2-2--3-3-3-----0-0-0-0---||
B||-----------------0-0-0-0-3-3-3--3-3-3-----0-0-0-0---||
G||-------2-2-2-1-1-1-1-1-1-2-2-2--0-0-0-----1-1-1-1---|| x2
D||-4-4-4-2-2-2-2-2-2-2-2-2-0-0-0--0-0-0-2-2-2-2-2-2---||
A||-4-4-4-0-0-0-2-2-2-2-2-2--------2-2-2-2-2-2-2-2-2---||
E||-2-2-2-------0-0-0-0-0-0--------3-3-3-0-0-0-0-0-0---||

Gtr. 2
e||-----------------0-0-0-0--------------------0-0-0-0-||
B||-----------------0-0-0-0--------------------0-0-0-0-||
G||-------2-2-2-----1-1-1-1-7-7-7-12-12-12-9-9-9-9-9-9-|| x2
D||-4-4-4-2-2-2-2-2-2-2-2-2-7-7-7-12-12-12-9-9-9-9-9-9-||
A||-4-4-4-0-0-0-2-2-2-2-2-2-5-5-5-10-10-10-7-7-7-7-7-7-||
E||-2-2-2-------0-0-0-0-0-0----------------------------||


Bridge {The chord progression is E F# G# A G F# EAE}
Gtr.1 PM (Second time play double speed ie 8 times per chord instead of 4)
e||--------------------------------------------------------------||
B||------------------------------------------------------*-------||
G||-9999-11111111-13131313-14141414-12121212-11111111-9999999----||x 2
D||-9999-11111111-13131313-14141414-12121212-11111111-9999999----||
A||-7777-9-9-9-9--11111111-12121212-10101010-9-9-9-9--7777777/\--||
E||--------------------------------------------------------------||
*guitar 2 plays A5

Gtr. 2 (appegiated Grt. 1 chords but an octave or so lower)
e||-----0~---0~---0~---0~---0~---0~---0~-----------||
B||------0~---0~---0~---0~---0~---0~---0~----------||
G||--------------------------------------2---------|| x2
D||---2----4----6----7----5----4----2----2-2-------||
A||--2-2--4-4--6-6--7-7--5-5--4-4--2-2---0-2-------||
E||-(0)--(2)--(4)--(5)--(3)--(2)--(0)*-----0-/\----||
*(you could play the root note too as guitar two follow guitar one, just and octave or
lower)


Solo
Gtr. 1 x 2
e|0-0-0-0-0-0-0-0-0-0-0-0-0-0-0-0-0-0-0-0-0-0-0-0-0-0-0-0-0-0-0-0-0-0-0-0-0-0-0-0-0-0-|
B|5-5-5-3-3h5-0-0-0-0-0-0-3-3-3-3/8-3-5-5-5-5-5-5-5-5-5-3-3h5-0-0-0-0-0-0-3-3-3-3/8-3-|
G|------------4-4-4-4-4-4-------------------------------------4-4-4-4-4-4-------------|
D|------------------------------------------------------------------------------------|
A|------------------------------------------------------------------------------------|
E|------------------------------------------------------------------------------------|

Gtr. 2 (plays Chorus Chords)
e||-----------------0-0-0-0--------------------0-0-0-0-||
B||-----------------0-0-0-0--------------------0-0-0-0-||
G||-------2-2-2-----1-1-1-1-7-7-7-12-12-12-9-9-9-9-9-9-|| x2
D||-4-4-4-2-2-2-2-2-2-2-2-2-7-7-7-12-12-12-9-9-9-9-9-9-||
A||-4-4-4-0-0-0-2-2-2-2-2-2-5-5-5-10-10-10-7-7-7-7-7-7-||
E||-2-2-2-------0-0-0-0-0-0----------------------------||

Post Solo
Both guitars strum
e||-----||
B||-----||
G||-9b--||
D||-x---||
A||-7b--||
E||----\||


Chorus 3
Gtr. 1
e||-----------------0-0-0-0-2-2-2--3-3-3-----0-0-0-0---||
B||-----------------0-0-0-0-3-3-3--3-3-3-----0-0-0-0---||
G||-------2-2-2-1-1-1-1-1-1-2-2-2--0-0-0-----1-1-1-1---|| x4
D||-4-4-4-2-2-2-2-2-2-2-2-2-0-0-0--0-0-0-2-2-2-2-2-2---||
A||-4-4-4-0-0-0-2-2-2-2-2-2--------2-2-2-2-2-2-2-2-2---||
E||-2-2-2-------0-0-0-0-0-0--------3-3-3-0-0-0-0-0-0---||

Gtr. 2
e||-----------------0-0-0-0--------------------0-0-0-0-||
B||-----------------0-0-0-0--------------------0-0-0-0-||
G||-------2-2-2-----1-1-1-1-7-7-7-12-12-12-9-9-9-9-9-9-|| x4
D||-4-4-4-2-2-2-2-2-2-2-2-2-7-7-7-12-12-12-9-9-9-9-9-9-||
A||-4-4-4-0-0-0-2-2-2-2-2-2-5-5-5-10-10-10-7-7-7-7-7-7-||
E||-2-2-2-------0-0-0-0-0-0----------------------------||


Outro
e||---------------------------------||
B||---------------------------------||
G||-------------------2-2-2-2-2-2---|| x 3
D||-------------------2-2-2-2-2-2---||
A||------------4-5-7--0-0-0-0-0-0---||
E||-0-4-5-7-(0)---------------------||

Both guitars

e||----------0~--||
B||----------0~--||
G||-----2-2--1~--||
D||-4-4-2-2--2~--||
A||-4-4-0-0--2~--||
E||-2-2------0~--||

Ďalšie piesne z albumu

The Pretender

Foo Fighters

Let It Die

Foo Fighters

Erase/Replace

Foo Fighters

Long Road to Ruin

Foo Fighters

Come Alive

Foo Fighters

Summer's End

Foo Fighters

Statues

Foo Fighters

But, Honestly

Foo Fighters

Home

Foo Fighters

Once and For All

Foo Fighters

seda

Foo Fighters

Novinky v katalógu

Najpopulárnejšie piesne interpreta

Best of You

Foo Fighters

Learn to Fly

Foo Fighters

All My Life

Foo Fighters

The Pretender

Foo Fighters

Walk

Foo Fighters

Walking After You

Foo Fighters

DOA

Foo Fighters

Everlong

Foo Fighters

My Hero

Foo Fighters

Big Me

Foo Fighters

Akordy

C C# D D# Es E F F# G G# As A A# B H 

Najčítanejšie