Foo Fighters: Akordy k piesni Once and For All

Upraviť pieseň
Interpret: Foo Fighters

Dĺžka piesne: 03:47



Foo Fighters - Once and For All (akordy)

Transpozícia ( -2 -1 0 +1 +2 )


intro/verse
e-----------------------------------------------------------------|
B-----------------------------------------------------------------|
G--0-0--4-0-0-0---------------------------------------------------|
D---------------0-0-4h5-4-0-0-0-----------------------------------|
A-------------------------------0-0-0-4-0-0-0-0-0--4h5-4-0-0-0----|
E-----------------------------------------------------------------|

chorus
e-3-3-3-3-2-2-2-2-0-0-0-0--0-0-0-----3-3-3-3-2-2-2-2-0-0-0-------0--3-3-3-|
B-3-3-3-3-3-3-3-3-2-2-2-0--0-0-0-----3-3-3-3-3-3-3-3-2-2-2-4-4-4-2--3-3-3-|
G-0-0-0-0-2-2-2-2-2-2-2-1--1-1-1-----0-0-0-0-2-2-2-2-2-2-2-4-4-4-2--0-0-0-|
D-0-0-0-0-0-0-0-0-2-2-2-2--2-2-2-----0-0-0-0-0-0-0-0-2-2-2-4-4-4-2--0-0-0-|
A-2-2-2-2---------0-0-0-2--2-2-2-----2-2-2-2---------0-0-0-2-2-2-0--2-2-2-|
E-3-3-3-3---------0-0-0-0--0-0-0-x2--3-3-3-3---------0-0-0-------0--3-3-3-|

3-2-2-2-0--0-0-0-0-0--0-0-0-0-3-3-3-3-2-2-2-0--0-0-0-0-0--0-0-0-0-|
3-3-3-3-2--2h3-2-2-2--2h3-2-2-3-3-3-3-3-3-3-2--2h3-2-2-2--2h3-2-2-|
0-2-2-2-2--2-2-2-2-2--2-2-2-2-0-0-0-0-2-2-2-2--2-2-2-2-2--2-2-2-2-|
0-0-0-0-2--2-2-2-2-2--2-2-2-2-0-0-0-0-0-0-0-2--2-2-2-2-2--2-2-2-2-|
2-------0--0-0-0-0-0--0-0-0-0-2-2-2-2-------0--0-0-0-0-0--0-0-0-0-|
3-------0--0-0-0-0-0--0-0-0-0-3-3-3-3-------0--0-0-0-0-0--0-0-0-0-|

verse

chorus

bridge
e--------------------------------------------------------------------------|
B--------------------------------------------------------------------------|
G-------------------------------------------------------9-------------7-7-7|
D-9-9-9-9-9-9-9-9-12-12-12-12-12-12-12-12-7-7-7-7-7-7-7-9-----5-5-5-5-7-7-7|
A-9-9-9-9-9-9-9-9-12-12-12-12-12-12-12-12-7-7-7-7-7-7-7-7-----5-5-5-5-5-5-5|
E-7-7-7-7-7-7-7-7-10-10-10-10-10-10-10-10-5-5-5-5-5-5-5-----2-3-3-3-3------|
(palm mute-->)
-------------------------|
-2-2h3-2-2-2--2h3-2-2----|
-2-2-2-2-2-2--2-2-2-2----|
-2-2-2-2-2-2--2-2-2-2----|
-------------------------|
-------------------------|x4

Ďalšie piesne z albumu

The Pretender

Foo Fighters

Let It Die

Foo Fighters

Erase/Replace

Foo Fighters

Long Road to Ruin

Foo Fighters

Come Alive

Foo Fighters

Summer's End

Foo Fighters

Statues

Foo Fighters

But, Honestly

Foo Fighters

Home

Foo Fighters

seda

Foo Fighters

Novinky v katalógu

Najpopulárnejšie piesne interpreta

Best of You

Foo Fighters

Learn to Fly

Foo Fighters

All My Life

Foo Fighters

The Pretender

Foo Fighters

Walk

Foo Fighters

Walking After You

Foo Fighters

DOA

Foo Fighters

Everlong

Foo Fighters

My Hero

Foo Fighters

Big Me

Foo Fighters

Akordy

C C# D D# Es E F F# G G# As A A# B H 

Najčítanejšie