Foo Fighters: Akordy k piesni Statues

Upraviť pieseň
Interpret: Foo Fighters

Dĺžka piesne: 03:47



Foo Fighters - Statues (akordy)

Transpozícia ( -2 -1 0 +1 +2 )


Intro 0:01 - 0:14
(The Vibrato's are subtle)
[e||------------------------------------8~-10~-------------------------||
[B||-10~--10b--10p8~--------10br----------------10~---10b--10p8~-------||
[G||--------------------9p7--------------------------------------------||
[D||-------------------------------------------------------------------||
[A||-------------------------------------------------------------------||
[E||-------------------------------------------------------------------||
[
[
[Intro/Interlude Chords
[ D D C C G G F F
[e||--2---- 3-----3-----3-----3-----3-----1-------|
[B||--3-----3-----1-----1-----3-----3-----1-----1-|
[G||--2-----2-----0-----0-----0-----0-----2-----2-|
[D||--0-----0-----2-----2-----0-----0-----3-----3-|
[A||--------------3-----3-----2-----2-----3-----3-|
[E||--------------------------3-----3-----1-----1-|
[ D D C C
[e||--2-----2-----3-----3-||
[B||--3-----3-----1-----1-||
[G||--2-----2-----0-----0-||
[D||--0-----0-----2-----2-||
[A||--------------3-----3-||
[E||----------------------||


Verse (Verse Intro) 0:14 - 0:20
G G
e||--3-----3-|
B||--3-----3-|
G||--0-----0-|
D||--0-----0-|
A||--2-----2-|
E||--3-----3-|

Verse (Vocals set in) 0:20 - 0:40
G F Em Eb G F Em Bb
e||--3-----1-----0-----6-----3-----1-----0-----6-||
B||--3-----1-----0-----8-----3-----1-----0-----8-||
G||--0-----2-----0-----8-----0-----2-----0-----8-||
D||--0-----3-----2-----8-----0-----3-----2-----8-||
A||--2-----3-----2-----6-----2-----3-----2-----6-||
E||--3-----1-----0-----------3-----1-----0-------||

Chorus 0:40 - 1:01
D C G G D C G G
e||--2-----3-----3-----3-----2-----3-----3-----3-||
B||--3-----1-----3-----3-----3-----1-----3-----3-||
G||--2-----0-----0-----0-----2-----0-----0-----0-||
D||--0-----2-----0-----0-----0-----2-----0-----0-||
A||--------3-----2-----2-----------3-----2-----2-||
E||--------------3-----3-----------------3-----3-||

D C C-C G
We’re just ordinary people, you and me

D C C-C G
Time will turn us into statues, eventually

Verse 1:01 - 1:21

Chorus x2 1:21 - 2:02

Bridge 2:02 - 2:23
Note On the D, occasionally pull your middle finger
finger from the high e string and add it back on. (Dsus2)
Am C G D Am C G D
e||--0-----3-----3-----2-----0-----3-----3-----2(0)--||
B||--1-----1-----3-----3-----1-----1-----3-----3(3)--||
G||--2-----0-----0-----2-----2-----0-----0-----2(2)--||
D||--2-----2-----0-----0-----2-----2-----0-----0(0)--||
A||--0-----3-----2-----------0-----3-----2-----------||
E||--------------3-----------------------3-----------||


Solo 2:23 - 2:43
(Chords the same as in the bridge)

e||---------------------(0)------|
B||------------------------------|
G||------------------------------|
D||--7--7-9-10--10-9-7-9--10p9p7-|
A||------------------------------|
E||------------------------------|

(Played Faster)
e||---(0)---------------(0)----------------||
B||----------------------------------------||
G||----------------------------------------||
D||--7---7-9-10-10-9-7-9----10p9--10p9p7---||
A||-------------------------------------10-||
E||----------------------------------------||

Interlude 2:43 - 3:03
E||------------------------------------------8~-10~-||
B||-------10~--10b--10p8~--------10br---------------||
G||--------------------------9p7--------------------||
D||-------------------------------------------------||
A||-/10---------------------------------------------||
E||-------------------------------------------------||

E||------------------------------------8~--5~-||
B||-10~--10b--10p8~--------10br---------------||
G||--------------------9p7--------------------||
D||-------------------------------------------||
A||-------------------------------------------||
E||-------------------------------------------||

Ďalšie piesne z albumu

The Pretender

Foo Fighters

Let It Die

Foo Fighters

Erase/Replace

Foo Fighters

Long Road to Ruin

Foo Fighters

Come Alive

Foo Fighters

Summer's End

Foo Fighters

But, Honestly

Foo Fighters

Home

Foo Fighters

Once and For All

Foo Fighters

seda

Foo Fighters

Novinky v katalógu

Najpopulárnejšie piesne interpreta

Best of You

Foo Fighters

Learn to Fly

Foo Fighters

All My Life

Foo Fighters

The Pretender

Foo Fighters

Walk

Foo Fighters

Walking After You

Foo Fighters

DOA

Foo Fighters

Everlong

Foo Fighters

My Hero

Foo Fighters

Big Me

Foo Fighters

Akordy

C C# D D# Es E F F# G G# As A A# B H 

Najčítanejšie