Inekafe: Akordy k piesni Svätý pokoj

Upraviť pieseň
Interpret: Inekafe


Inekafe - Svätý pokoj (akordy)

Transpozícia ( -2 -1 0 +1 +2 )


C#HAHC#C#HAAF#

ADokedy Estále F#mipočúvať Dmám len
Atie reči Eo tom aký F#misom vážne DEzlý
že už nič neviem a že kde beriem
nápady z ktorých slušný nepochopí

Vraj som len nervák, s ktorým sa nedá
už v ničom na svete bez ujmy vyjsť
neviem sa správať a ani dávať
pocit druhým že môžu byť so mnou šťastní

®: EČo všetci chcú ? čo sledujú ?
ja chcem len jedno a to nech mi dajú konečne
Asvätý poF#mikoj, aspoň raz Dsvätý poEkoj
nič v zlom, len
Asvätý poF#mikoj, na chvílu Dvypnúť byť Esám

Vonku či v sále zvoní mi stále
už asi aj tu srandu niekam hodím
vždy keď mi voláš kde sa zas túlaš
večer keď nestíham a je desať hodín

®:


A E F#mi D A E F#mi D
E|--------|---------|--------|-----------797--
H|--------|---------|--------|---7---7,10---10
G|9-9---6-|66-------|9-9---6-|-69-9-9---------
D|---9-9-9|---97-797|---9-9-9|9---------------
A|--------|---------|--------|----------------
E|--------|---------|--------|----------------

A E F#mi D A E
12-12-----9--|99---------------|------9------
-----12-12-12|---12,10-10,12,10|12,10--12,10-
-------------|-----------------|-------------
-------------|-----------------|-------------
-------------|-----------------|-------------
-------------|-----------------|-------------

F#mi D E
-------------99999--------||
----10,12-10------12,10,12||
9,11----------------------||
--------------------------||
--------------------------||
--------------------------||


®:

AF#miDE

Ďalšie piesne z albumu

Vianoce

Inekafe

Radikál

Inekafe

Pohoda

Inekafe

Sráč

Inekafe

Peter

Inekafe

Skús to ďalej

Inekafe

Nie, nie

Inekafe

Ako idiot

Inekafe

Poraď si sám

Inekafe

Čumil

Inekafe

Novinky v katalógu

Najpopulárnejšie piesne interpreta

Záverečná

Inekafe

Ráno

Inekafe

Čumil

Inekafe

30. február

Inekafe

Vianoce

Inekafe

Ďakujeme vám

Inekafe

Akordy

C C# D D# Es E F F# G G# As A A# B H 

Najčítanejšie