Kelly Family: Akordy k piesni Staying alive

Upraviť pieseň
Interpret: Kelly Family


Kelly Family - Staying alive (akordy)

Transpozícia ( -2 -1 0 +1 +2 )


Staying Alive


Accords:
C C# D E E2 A A2 B
|-------|-------|-------|-------|---0---|-------|---0---|-------|
|-------|-------|-------|-------|---0---|-------|---2---|-------|
|-------|-------|-------|-------|---9---|-------|---2---|-------|
|---5---|---6---|---7---|---9---|---9---|-------|---2---|-------|
|---3---|---4---|---5---|---7---|---7---|---7---|---0---|---9---|
|-------|-------|-------|-------|-------|---5---|-------|---7---|
1
||---------------------------------||
||---------------------------------||
||---7--7--7--5--4--4--5h7--7--5---||
||---------------------------------||
||---------------------------------||
||---------------------------------||
2
||------------------------------------------||
||------------------------------------------||
||---6/7--7--6/7--7--6/7--7--6/7--7--5--||
||--------------------------------------7---||
||------------------------------------------||
||------------------------------------------||


Intro: E2
E2 Pick up yourself Joe
Tell all the rest there is a A2 way out if you want to get out
Help E2 me out
E2 Everybody thinks he knows the way out
But nobody dares that's A2 why we're stuck in the ground
Help E2 me out
Chorus:
B Staying alive E with a trigger in your head
B Staying alive E with a trigger in your head
B WelAcome, welcome to the real side of life
Instrument: E 1
E Everybody's smilling, nobody's crying
But Aeverybody's kniving everyone
From {11the back
E Wake up little boy 'cause you're living in your dreams
A Open your eyes
To the real {11 side of life
Chorus:
B Staying alive E with a trigger in your head...
Instrument: E 1
I C# try to be good yes you ARE
But A no one seems to care we really DON'T CARE
The harder I try you never tried
The more they E try to break me you never tried ANYTHING you
I C# try to be good oh HERE HE GOES AGAIN
But A no one seems to care I told you to DO what they told you
The harder I try
The more they E try to break me you DAMN kid
B WelAcome, welcome to the real side of life
Instrument: E 1
E Is it dope you want or is it a gun you want
You A spell out what you want and then I'll get you
What {11 you want
E I want it all and I want it now
I'm A gonna go ahead and grab it all
Just {11 for myself
Chorus:
B Staying alive E with a trigger in your head...
Instrument: E 2
Chorus:
B Staying alive E with a trigger in your head...
Outro: C D E



Ďalšie piesne z albumu

Nanana

Kelly Family

Every Baby

Kelly Family

I Can't Help Myself

Kelly Family

You belong to me

Kelly Family

Thunder

Kelly Family

Come Back to Me

Kelly Family

Hey Diddle Diddle

Kelly Family

Like A Queen

Kelly Family

Stars Fall From Heaven

Kelly Family

Calling Heaven

Kelly Family

Nothing Like Home

Kelly Family

Novinky v katalógu

Najpopulárnejšie piesne interpreta

SANTA MARIA

Kelly Family

Flip A Coin

Kelly Family

Mama

Kelly Family

An Angel

Kelly Family

Adeste fideles

Kelly Family

A Hard Day's Night

Kelly Family

Nanana

Kelly Family

I Can't Help Myself

Kelly Family

Amazing Grace

Kelly Family

Akordy

C C# D D# Es E F F# G G# As A A# B H 

Najčítanejšie