Le Payaco: Akordy k piesni Zabil ma nožom na chleba

Upraviť pieseň
Interpret: Le Payaco


Le Payaco - Zabil ma nožom na chleba (akordy)

Transpozícia ( -2 -1 0 +1 +2 )



intro:
D D/G#
E||---------2--------2--------|--------2--------2--------|
B||------3--------3--------3--|-----3--------3--------3--|
G||*--2--------2--------2-----|--1--------1--------1-----|
D||*--------------------------|--------------------------|
A||---------------------------|--------------------------|
E||---------------------------|--------------------------|

D/G B
--------2--------2---------||--------------------------|
-----3--------3--------3---||--------3--------3--------|
--0--------0--------0-----*||-----3--------3--------3--|
--------------------------*||--------------------------|
---------------------------||--1--------1--------1-----|
---------------------------||--------------------------|

D/F# Dmi/F
--------------------------|--------------------------|
--------3--------3--------|--------3--------3--------|
-----2--------2--------2--|-----2--------2--------2--|
--------------------------|--------------------------|
--------------------------|--------------------------|
--2--------2--------2-----|--1--------1--------1-----|

A/E A
--------------------------|-------------------||
--------------2-----------|--2----------------||
--------2--------2-----2--|--2----------------||
-----2-----2--------2-----|--2----------------||
--------------------------|--0----------------||
--0-----------------------|-------------------||


DZabil ma nožom D/G#na chleba
D/Gvraj mi tu žiť už Dnetreba
Dposlal ma rovno D/G#do raja
D/Gnech ma tam pánboh Bpokrája

D/F# Dmi/F A/E A

pánboh ma pomlel mlynčekom
dal si ma k vínu s klinčekom
v žalúdku najvyššej bytosti
zasial som pár vredov od zlosti

on je ten doktor všetkohoj
z neba vám mávam tak ahoj
na svet sa dívam cez periskop
ako si dávaš hemendex
Ty trubiroh Ty leňochod Ty...

Ďalšie piesne z albumu

Horská chata

Le Payaco

Osol

Le Payaco

Pes priateľ môj

Le Payaco

Orgován

Le Payaco

Svetlo zhaslo

Le Payaco

Intelektuál

Le Payaco

Novinky v katalógu

Najpopulárnejšie piesne interpreta

Akordy

C C# D D# Es E F F# G G# As A A# B H 

Najčítanejšie