Mike Oldfield: Akordy k piesni Tres Lunas

Upraviť pieseň
Interpret: Mike Oldfield


Mike Oldfield - Tres Lunas (akordy)

Transpozícia ( -2 -1 0 +1 +2 )


Mike Oldfield - Tres Lunas - Turtle Island

This is, of course, only "my interpretation of the song".


e-0------0----0-2------|--0-2-0------0----0------0-----| --0--|
H-----4-----4------0---|----------4-----4------4---0---| --0--|
G--1-------------------|-------1------------3----------| 2x --2--|
D----------------------|-------------------------------| --2--|
A----------------------|-------------------------------| -----|
E----------------------|-------------------------------| -----|


e-------0---4-2----2-0---0--0--00--|----------0---4-2---0-2-4---0--0-----|
H-0---0---0------0-------0--0--0---|-0/2/0--0---0---------------0--0-----|
G---2--------------------2--2--2---|------2---------------------2--2-----|
D------------------------2--2--2---|----------------------------2--2-----|
A----------------------------------|-------------------------------------|
E----------------------------------|-------------------------------------|


e---0-----0---0-2------|--0-2-0------0----0------0----0-----0---0-2----|
H-4-----4---4------0---|----------4-----4------4---0------4---4-----0--|
G-----1----------------|-------1------------3-----------1--------------|
D----------------------|-----------------------------------------------|
A----------------------|-----------------------------------------------|
E----------------------|-----------------------------------------------|


e--0-2-0------0----0------0-----0--|
H----------4-----4------4---0---0--|
G-------1------------3----------2--|
D-------------------------------2--|
A----------------------------------|
E----------------------------------|

e-------0---4-2----2-0---0--0--0-|----------0---4-2---0-2-4---0--0-----|
H-0---0---0------0-------0--0--0-|-0/2/0--0---0---------------0--0-----|
G---2--------------------2--2--2-|------2---------------------2--2-----|
D------------------------2--2--2-|----------------------------2--2-----|
A--------------------------------|-------------------------------------|
E--------------------------------|-------------------------------------|

Paralelly 2nd (distorted electric) guitar...

e---12---11-12--11-12-14-----12-14-12----11-12--11-12----11-12--------|
H------9-----------------12------------9---------------10-------12----|
G-------------------------------------(13)----------------------------| 2x
D---------------------------------------------------------------------|
A---------------------------------------------------------------------|
E---------------------------------------------------------------------|


e-----------12-----16-14-----14-12---from here it gets too complicated...
H--12-10-12----12--------12----------------------------------------------
G------------------------------------------------------------------------
D------------------------------------------------------------------------
A------------------------------------------------------------------------
E------------------------------------------------------------------------

Ďalšie piesne z albumu

Misty

Mike Oldfield

No Mans Land

Mike Oldfield

Return To The Origin

Mike Oldfield

Landfall

Mike Oldfield

Viper

Mike Oldfield

Turtle Island

Mike Oldfield

Daydream

Mike Oldfield

Thou Art In Heaven

Mike Oldfield

Sirius

Mike Oldfield

Firefly

Mike Oldfield

Novinky v katalógu

Najpopulárnejšie piesne interpreta

Moonlight Shadow

Mike Oldfield

Man In The Rain

Mike Oldfield

Far Above The Clouds

Mike Oldfield

Shadow On The Wall

Mike Oldfield

In Dulci Jubilo

Mike Oldfield

Islands

Mike Oldfield

Angelique

Mike Oldfield

Arrival

Mike Oldfield

Tubular Bells

Mike Oldfield

Pacha mama

Mike Oldfield

Akordy

C C# D D# Es E F F# G G# As A A# B H 

Najčítanejšie