Mňága A Žďorp: Akordy k piesni Na stěně visí reprodukce

Upraviť pieseň
Interpret: Mňága A Žďorp


Mňága A Žďorp - Na stěně visí reprodukce (akordy)

Transpozícia ( -2 -1 0 +1 +2 )



D G
E:-------2----2-------2---2---------3---3--
H:-----3---3--------3---3---------0---0----
G:---2------------2-------------0----------
D:-0------------0-------------0------------
A:-----------------------------------------
E:-----------------------------------------


DSmích seG ztrácí v matraEmicích A
pokojem lítá hebký sníh
na stěně visí reprodukce
od Van Gogha unavená slunečnice


D G D
E:-------2-----------------2---
H:----3---------0-------3------
G:------------0----------------
D:-0--------0--------0---------
A:----------------------------
E:----------------------------

Pokoj se ztrácí v závějích
ještě musím projít peřejí
na stěně visí reprodukce
Picasova polámaná tanečnice

mezihra 2.



Ďalšie piesne z albumu

Psí pana Pavlova

Mňága A Žďorp

Nejlíp jim bylo

Mňága A Žďorp

Motýl

Mňága A Žďorp

I cesta může být cíl

Mňága A Žďorp

Nedotýkej se mě!

Mňága A Žďorp

Kluk stojí, čumí a kouří

Mňága A Žďorp

Budoucnost

Mňága A Žďorp

Podivné odpoledne

Mňága A Žďorp

Plameny

Mňága A Žďorp

Vzlétni, ptáku!

Mňága A Žďorp

Pravda neustále vítězí

Mňága A Žďorp

Klidná píseň

Mňága A Žďorp

Berousek

Mňága A Žďorp

Nepudu!

Mňága A Žďorp

Novinky v katalógu

Najpopulárnejšie piesne interpreta

Už vyplouvá loď John B.

Mňága A Žďorp

Hodinový hotel

Mňága A Žďorp

Made In Valmez

Mňága A Žďorp

Ve 4 ráno

Mňága A Žďorp

Ne, teď ne!

Mňága A Žďorp

Nagasaki Hirošima

Mňága A Žďorp

Ajlavjů

Mňága A Žďorp

I cesta může být cíl

Mňága A Žďorp

Nejlíp jim bylo

Mňága A Žďorp

Akordy

C C# D D# Es E F F# G G# As A A# B H 

Najčítanejšie