Para: Akordy k piesni ANI NÁHODOU

Upraviť pieseň
Interpret: Para

Dĺžka piesne: 03:18



Para - ANI NÁHODOU (akordy)

Transpozícia ( -2 -1 0 +1 +2 )


Intro
2x
e-----------------1-------3------------------------
h---------1--3----------------3--------------------
g-----2--------------------------------------------
D--------------------------------------------------
A--------------------------------------------------
E--------------------------------------------------



1. FChcel som ti len povedať, že Bnedokážem žiť,
FBez Teba ja v dnešnom svete Bnemám kade ísť,
FKeď sa budíš, Gmija sa budím tiež,
FKeď zaspávaš, Gmija zaspávam tiež.

R: A ani Bnáhodou nemením Cmivýznam slov,
predomnou Gmiaj za mnou, tou istou Fulicou
A ani Bnáhodou nemením Cmivýznam slov,
predomnou Gmiaj za mnou, tou istou Fulicou.

2. FNemusím Ti vravieť veci, Bvšetko dávno vieš,
FKeď si trochu nahnevaná, Brýchlo zabudneš.
FKeď sa budíš, Gmija sa budiť chcem,
FTomu verím, Gmiže inú nestretnem.

R: A ani náhodou nemením význam slov,
predomnou aj za mnou, tou istou ulicou
A ani náhodou nemením význam slov,
predomnou aj za mnou, tou istou ulicou.

3. CmiJa som si stále myslel, Gmiže pravda neuteká,
DmiDúfam, že náš život bude Bkľudná ale dlhá rieka,
CmiZatiaľ tomu pevne verím, Gmiže láska je len jedna,
DmiKeď našpúliš na mňa pery Ba povieš mi ticho.

R: Ani náhodou nemením význam slov,
predomnou aj za mnou, tou istou ulicou
A ani náhodou nemením význam slov,
predomnou aj za mnou, tou istou ulicou.


Medzihra:



e-----------------1-------3--------------------------1-------5--3---
h---------1--3---------------3-------------1--3---------------------
g-----2----------------------------------2--------------------------
D-------------------------------------------------------------------
A-------------------------------------------------------------------
E-------------------------------------------------------------------

Ďalšie piesne z albumu

Novinky v katalógu

Najpopulárnejšie piesne interpreta

Akordy

C C# D D# Es E F F# G G# As A A# B H 

Najčítanejšie