Pearl Jam: Akordy k piesni Black

Upraviť pieseň
Interpret: Pearl Jam

Dĺžka piesne: 05:48



Pearl Jam - Black (akordy)

Transpozícia ( -2 -1 0 +1 +2 )


E E

:----7------7------:--9-------9------:---7--12-----7--7---7----------
:----9------9--10--:--10------10--9--:---9---------7--7---9----------
:----7------7------:--9-------9------:---7---------7--7---7----------
:----9------9------:--9-------9------:---9---------7--7---9----------
:----7------7------:--X-------X------:---7---------X--X---7----------
:---(0)----(0)-----:--9-------9------:--(0)--------7--7--(0)---------

A E E
:---5---9----5---5--7-:--7--12--7-----:--9-----9------:---7----------
:---5--------5---5--7-:--9------9--10-:--10----10--9--:---9----------
:---6--------6---6--7-:--7------7-----:--9-----9------:---7----------
:---7--------7---7--7-:--9------9-----:--9-----9------:---9----------
:---7--------7---7--X-:--7------7-----:--X-----X------:---7----------
:---5--------5---5--7-:-(0)----(0)----:--9-----9------:--(0)---------


ESheets of empty AcanvasAsus4 A
untouched Esheets of clay A Asus4 A
EThey spread out beAfore me
as her Ebody once did

EAll five horAizons,Asus4 A
revolved aEround her soulA (as the earth to the Asus4sun) A
ENow the air I Atasted and breathed,
has Etaken a turn (Not sure about this line)

Oooh Call I know I taught her was... everyEmithing
Oooh Call I know she gave all... that Emishe wore
And my Dbitter hands
Shake beCneath the clouds
Of what was everyEmithing
All the Dpictures have all been Cwashed in black
Tatooed everyEmithing.

I Etake a Awalk outsideAsus4 A
I’m surErounded by some Akids at play Asus4 A
EI can feel their Alaughter
So Ewhat can I say

Ooh Call my twisted thoughts they spin round my Emihead (I’m spinnin’)
Oooh I’m Cspinning how quick the sun can Emidrop awayayayayay
And my Dbitter hands
on Cbroken glass
of what was everyEmithing
All my Dpictures have all been Cwashed in black
EmiTatooed everything
All my Dlove gone bad
turned my Cworld to black
tatooed all DI see
All that CI am
All that I’ll Emibeeeeee yeaahheah

I Dknow some day you’ll have a beautiful life
I Cknow you’ll be a sun,
In Emisomebody elses sky, Dwhyhy, whyhy Cwhyhy
can’t it be, can’t it be in Emimine.

Ďalšie piesne z albumu

Once

Pearl Jam

Even Flow

Pearl Jam

Alive

Pearl Jam

Why Go

Pearl Jam

Jeremy

Pearl Jam

Oceans

Pearl Jam

Porch

Pearl Jam

Garden

Pearl Jam

Deep

Pearl Jam

Release

Pearl Jam

Master/Slave

Pearl Jam

Wash

Pearl Jam

Dirty Frank

Pearl Jam

Novinky v katalógu

Najpopulárnejšie piesne interpreta

Yellow Ledbetter

Pearl Jam

Jeremy

Pearl Jam

Just Breathe

Pearl Jam

Black

Pearl Jam

The End

Pearl Jam

Unthought Known

Pearl Jam

Amongst The Waves

Pearl Jam

Alive

Pearl Jam

Got Some

Pearl Jam

Akordy

C C# D D# Es E F F# G G# As A A# B H 

Najčítanejšie