Pearl Jam: Akordy k piesni Daughter

Upraviť pieseň
Interpret: Pearl Jam

Dĺžka piesne: 03:55



Pearl Jam - Daughter (akordy)

Transpozícia ( -2 -1 0 +1 +2 )



Transcribed by: Chris Wilson (rhtyhm) / Evan Cowan and Dave Coleman (Solo)
Email: yokel@zip.com.au / evan@giventowail.com


Stone’s guitar : d-B-G-D-G-G (High to Low)
Mike’s guitar : Standard
G3 unknown player (electric) : d-B-G-D-G-G (High to Low)
The TurnAround is played at the start of the progression the first time
it is played, then at the end of the progression every time after that.
Thanks to Brent Riley for Mike’s Part in the Chorus.

-|----------0------|-------------|-------------------------------------|------
-|--------0---0----|-------------|-------------------------------------|------
-|------0-------0--|----------0--|--0-0-0-0-0-0-0--0-0-0-0-0--0-0-0-0--|------
-|----7------------|--7/97p0-0--|--7/9-7-7-9-9-9--0-0-0-0-0--7/9-7-0--|------
-|--5--------------|--5/75p0-0--|--5/7-5-5-7-7-7--0-0-0-0-0--5/7-5-0--|------
-|0----------------|--0-0-0---0--|--0-0-0-0-0-0-0--0-0-0-0-0--0-0-0-0--|------
Intro Stone (TurnAround)

-|-----------------------------|------------------|-------|-------------------
-|-----------------------------|------------------|-------|-------------------
-|--0-0-0-0-0--0-0-0--0-0-0-0--|--0--0-0-0-0-0-0--|-------|-------------------
-|--0-0-0-0-0--7/9-7--0-0-0-0--|--7--7-7-7-7-7-7--|-------|-------------------
-|--0-0-0-0-0--5/7-5--0-0-0-0--|--5--5-5-5-5-5-5--|-------|-------------------
-|--0-0-0-0-0--0-0-0--0-0-0-0--|--0--0-0-0-0-0-0--|-------|-------------------
(T.A)

-|-------------------------------------|-----------------------------|--------
-|-------------------------------------|-----------------------------|--------
-|--0-0-0-0-0-0-0--0-0-0-0-0--0-0-0-0--|--0-0-0-0-0--0-0-0--0-0-0-0--|--------
-|--7/9-7-7-9-9-9--0-0-0-0-0--7/9-7-0--|--0-0-0-0-0--7/9-7--0-0-0-0--|--------
-|--5/7-5-5-7-7-7--0-0-0-0-0--5/7-5-0--|--0-0-0-0-0--5/7-5--0-0-0-0--|--------
-|--0-0-0-0-0-0-0--0-0-0-0-0--0-0-0-0--|--0-0-0-0-0--0-0-0--0-0-0-0--|--------
Verse Stone 4x

-|------------------|-------|-------------------------------------|-----------
-|------------------|-------|-------------------------------------|-----------
-|--0--0-0-0-0-0-0--|-------|--0-0-0-0-0-0-0--0-0-0-0-0--0-0-0-0--|-----------
-|--7--7-7-7-7-7-7--|-------|--7/9-7-7-9-9-9--0-0-0-0-0--7/9-7-0--|-----------
-|--5--5-5-5-5-5-5--|-------|--5/7-5-5-7-7-7--0-0-0-0-0--5/7-5-0--|-----------
-|--0--0-0-0-0-0-0--|-------|--0-0-0-0-0-0-0--0-0-0-0-0--0-0-0-0--|-----------
(T.A) 2nd Time G3 comes in and doubles Stone

-|-----------------------------|------------------|-------|-------------------
-|-----------------------------|------------------|-------|-------------------
-|--0-0-0-0-0--0-0-0--0-0-0-0--|--0--0-0-0-0-0-0--|-------|-------------------
-|--0-0-0-0-0--7/9-7--0-0-0-0--|--7--7-7-7-7-7-7--|-------|-------------------
-|--0-0-0-0-0--5/7-5--0-0-0-0--|--5--5-5-5-5-5-5--|-------|-------------------
-|--0-0-0-0-0--0-0-0--0-0-0-0--|--0--0-0-0-0-0-0--|-------|-------------------
(T.A)

-|----------------------------------------|-----------------------------------
-|--3-x-x-x-3---3-3---3-------------------|-----------------------------------
-|--4-x-x-x-4h5-0-0h4-5p4p0---------------|-----------------------------------
-|--5-x-x-x-5---5-5---5-------------------|-----------------------------------
-|----------------------------------------|-----------------------------------
-|----------------------------------------|-----------------------------------
Mike During Verses fiddle with the G (e.g)

-|---------------|---------------|-----------------------------------------|--
-|---------------|---------------|-----------------------------------------|--
-|--0--0-0-0--0--|--0--0-0-0--0--|-----------------------------------------|--
-|--0--7/9-7--0--|--0--7/9-7--0--|--12--x-x--12--x-x--12--x-x--11-11-11-11-|--
-|--0--5/7-5--0--|--0--5/7-5--0--|--9---x-x--9---x-x--9---x-x--9--9--9--9--|--
-|--0--0-0-0--0--|--0--0-0-0--0--|--9---x-x--9---x-x--9---x-x--9--9--9--9--|--
Pre-Chorus Stone G3 Chorus Stone + G3 (l.t CD) x4

-|------------------------------|---------------------------------------------
-|--8--x--8-8-8--7-7-7-7-7-7-7--|---------------------------------------------
-|--7--x--7-7-7--7-7-7-7-7-7-7--|---------------------------------------------
-|--9--x--9-9-9--9-9-9-9-9-9-9--|---------------------------------------------
-|--7--x--7-7-7--7-7-7-7-7-7-7--|---------------------------------------------
-|------------------------------|---------------------------------------------
Mike During Choruses 4x

-|---------------------------------------|-----------------------------|------
-|---------------------------------------|-----------------------------|------
-|--0-0-0-0-0-0-0-0--0-0-0-0-0--0-0-0-0--|--0-0-0-0-0--0-0-0--0-0-0-0--|------
-|--7/9-7-7-9-9-9-9--0-0-0-0-0--7/9-7-0--|--0-0-0-0-0--7/9-7--0-0-0-0--|------
-|--5/7-5-5-7-7-7-7--0-0-0-0-0--5/7-5-0--|--0-0-0-0-0--5/7-5--0-0-0-0--|------
-|--0-0-0-0-0-0-0-0--0-0-0-0-0--0-0-0-0--|--0-0-0-0-0--0-0-0--0-0-0-0--|------
Verse Stone + G3 4x

-|------------------|-------|---------------|---------------------------------
-|------------------|-------|---------------|---------------------------------
-|--0--0-0-0-0-0-0--|-------|--0--0-0-0--0--|---------------------------------
-|--7--7-7-7-7-7-7--|-------|--0--7/9-7--0--|---------------------------------
-|--5--5-5-5-5-5-5--|-------|--0--5/7-5--0--|---------------------------------
-|--0--0-0-0-0-0-0--|-------|--0--0-0-0--0--|---------------------------------
(T.A) Pre-Chorus Stone + G3

-|-----------------------------------------|--------------------------|-------
-|-----------------------------------------|--------------------------|-------
-|-----------------------------------------|--------------------------|-------
-|--12--x-x--12--x-x--12--x-x--11-11-11-11-|--12-x-11-x-12-x-11-x-12--|-------
-|--9---x-x--9---x-x--9---x-x--9--9--9--9--|--------------------------|-------
-|--9---x-x--9---x-x--9---x-x--9--9--9--9--|--------------------------|-------
Chorus Stone + G3 4x 4th time G3

-|---------------|------------------------------------------|-----------------
-|---------------|------------------------------------------|-----------------
-|--0--0-0-0--0--|------------------------------------------|-----------------
-|--0--7/9-7--0--|--12--x-x--12--x-x--12--x-x--11-11-11-11--|-----------------
-|--0--5/7-5--0--|--9---x-x--9---x-x--9---x-x--9--9--9--9---|-----------------
-|--0--0-0-0--0--|--9---x-x--9---x-x--9---x-x--9--9--9--9---|-----------------
Stone + G3 * Chorus Stone + G3 4x

-|-----------------------|----------------------------------------------------
-|-----------------------|----------------------------------------------------
-|-----------------------|----------------------------------------------------
-|--------0-2p0----------|----------------------------------------------------
-|--0h2-2-------2--/7vv--|----------------------------------------------------
-|-----------------------|----------------------------------------------------
*Fill By Mike

-|---------------------------------------|---------------------------|--------
-|---------------------------------------|---------------------------|--------
-|--0-0-0-0-0-0-0-0--0-0-0-0-0--0-0-0-0--|--0-0-0-0--0-0-0--0-0-0-0--|--------
-|--7-9-7-7-9-9-9-9--0-0-0-0-0--7/9-7-0--|--0-0-0-0--7/9-7--0-0-0-0--|--------
-|--5/7-5-5-7-7-7-7--0-0-0-0-0--5/7-5-0--|--0-0-0-0--5/7-5--0-0-0-0--|--------
-|--0-0-0-0-0-0-0-0--0-0-0-0-0--0-0-0-0--|--0-0-0-0--0-0-0--0-0-0-0--|--------
Solo Stone + G3 2x

-|------------------|-------|-------------------------------------------------
-|------------------|-------|-------------------------------------------------
-|------------------|-------|-------------------------------------------------
-|--7--7-7-7-7-7-7--|-------|-------------------------------------------------
-|--5--5-5-5-5-5-5--|-------|-------------------------------------------------
-|--0--0-0-0-0-0-0--|-------|-------------------------------------------------
(T.A)

-|------3-----3-----3-----3---------------------------------|-----------------
-|--3h5---3h5---3h5---3h5---3h5-3---3-----------------------|-----------------
-|--------------------------------4---4-2---2-------2b---2--|-----------------
-|----------------------------------------5---5-2-5----5----|-----------------
-|----------------------------------------------------------|-----------------
-|----------------------------------------------------------|-----------------
Mike!!!

-|----------------------------------------|-----------------------------------
-|-0----------------------------------x--|-----------------------------------
-|-0-2b4-2b4-2b4-2b4-2b4r2-0---0-2-0--x--|--12h14p12-------------------------
-|---------------------------2------------|-----------14-12----12h14p12-------
-|----------------------------------------|-----------------14----------14----
-|----------------------------------------|-----------------------------------
2x

-----------------|------------------------|-----------------------------------
-----------------|--0--15-------15--------|--15-------15----------------------
-----------------|--0-----12b14----12b14--|-----12b14----12b14r12-14-12-14----
---12------------|------------------------|-----------------------------------
------14-12------|------------------------|-----------------------------------
------------15--|------------------------|-----------------------------------


-------------|----------------------------------------------------------------
-------------|----------------------------------------------------------------
--*12vvvvvv--|----------------------------------------------------------------
-------------|----------------------------------------------------------------
-------------|----------------------------------------------------------------
-------------|----------------------------------------------------------------
PH feedback fading out

-|----------------------------------------------------------------------------
-|--------------0-------------------------------------------------0-----------
-|--0-0-0-------0---------------------------0-0-0-0-0-0-0-0-------0-----------
-|--0-0-0-7/9-7-9---------------------------0-0-0-0-0-0-0-0-7/9-5-9-----------
-|--0-0-0-5/7-5-7---------------------------0-0-0-0-0-0-0-0-5/7-7-7-----------
-|--0-0-0-0-0-0-0---------------------------0-0-0-0-0-0-0-0-0-0-0-0-----------
Bridge Stone ’..me daughter not fair to the picture

------------------------------------------------------------------------------
--------------------------------------------0---------------------------------
----------------------0-0-0-0-0-0-0-0-------0----------------------------0-0--
----------------------0-0-0-0-0-0-0-0-7/9-7-9----------------------------0-0--
----------------------0-0-0-0-0-0-0-0-5/7-5-7----------------------------0-0--
----------------------0-0-0-0-0-0-0-0-0-0-0-0----------------------------0-0--
kept will remind me don’t call me daughter not fair to me

----------------------------------------|-------|-----------------------------
----------------------------------------|-------|-----------------------------
--0-0-0-0-0-0-------0----*--------------|-------|-----------------------------
--0-0-0-0-0-0-7/9-7-0-7--7-7-7-7-7-7-7--|-------|-----------------------------
--0-0-0-0-0-0-5/7-5-0-5--5-5-5-5-5-5-5--|-------|-----------------------------
--0-0-0-0-0-0-0-0-0-0-0--0-0-0-0-0-0-0--|-------|-----------------------------
the picture kept will remind me’ (T.A) *G3 comes in here.

-|---------------------------------------|---------------------------|--------
-|---------------------------------------|---------------------------|--------
-|--0-0-0-0-0-0-0-0--0-0-0-0-0--0-0-0-0--|--0-0-0-0--0-0-0--0-0-0-0--|--------
-|--7-9-7-7-9-9-9-9--0-0-0-0-0--7/9-7-0--|--0-0-0-0--7/9-7--0-0-0-0--|--------
-|--5/7-5-5-7-7-7-7--0-0-0-0-0--5/7-5-0--|--0-0-0-0--5/7-5--0-0-0-0--|--------
-|--0-0-0-0-0-0-0-0--0-0-0-0-0--0-0-0-0--|--0-0-0-0--0-0-0--0-0-0-0--|--------
Chorus Stone + G3

-|------------------|-------|-------------------------------------------------
-|------------------|-------|-------------------------------------------------
-|--0--0-0-0-0-0-0--|-------|-------------------------------------------------
-|--7--7-7-7-7-7-7--|-------|-------------------------------------------------
-|--5--5-5-5-5-5-5--|-------|-------------------------------------------------
-|--0--0-0-0-0-0-0--|-------|-------------------------------------------------
(T.A)

-|-----------------------------------------|-------------------------------|--
-|-----------------------------------------|-------------------------------|--
-|-----------------------------------------|-------------------------------|--
-|--12-x-x--12--x-x--12--x-x--11-11-11-11--|--12-x-11-x-12-x-11-x-12-12-12-|--
-|--9--x-x--9---x-x--9---x-x--9--9--9--9---|--9--x-9--x-9--x-9--x-9--9--9--|--
-|--9--x-x--9---x-x--9---x-x--9--9--9--9---|--9--x-9--x-9--x-9--x-9--9--9--|--
Chorus Stone + G3 3x 4th time b.g

-|-----------------------------------|----7-----|----------|------------------
-|-----------------------------------|----5-----|----------|------------------
-|--12-x--11-x-----------------------|----0-----|----------|------------------
-|--9--x--9--x--12--x--11-x--9--x-x--|----------|----------|------------------
-|--------------9---x--9--x--9--x-x--|----------|----------|------------------
-|-----------------------------------|----------|----------|------------------
Outro Stone + G3 4x Mike 6x G3 tacet (fade out)

-|------------------------------------------|------7----7---3---3--|----------
-|------------------------------------------|----5----5---5---5----|----------
-|------------------------------------------|--0-------------------|----------
-|------------------------------------------|----------------------|----------
-|--9h10p9--9h10p9--9h10p9--9h10p9--9h10p9--|----------------------|----------
-|------------------------------------------|----------------------|----------
Stone 18x Mike Fade....

Ďalšie piesne z albumu

Go

Pearl Jam

Animal

Pearl Jam

Glorified G

Pearl Jam

Dissident

Pearl Jam

W.M.A.

Pearl Jam

Blood

Pearl Jam

Rearviewmirror

Pearl Jam

Rats

Pearl Jam

Leash

Pearl Jam

Indifference

Pearl Jam

Novinky v katalógu

Najpopulárnejšie piesne interpreta

Yellow Ledbetter

Pearl Jam

Jeremy

Pearl Jam

Just Breathe

Pearl Jam

Black

Pearl Jam

The End

Pearl Jam

Unthought Known

Pearl Jam

Amongst The Waves

Pearl Jam

Alive

Pearl Jam

Got Some

Pearl Jam

Akordy

C C# D D# Es E F F# G G# As A A# B H 

Najčítanejšie