Pearl Jam: Akordy k piesni Glorified G

Upraviť pieseň
Interpret: Pearl Jam

Dĺžka piesne: 03:26



Pearl Jam - Glorified G (akordy)

Transpozícia ( -2 -1 0 +1 +2 )


Transcribed by: Rhythm : Chris Wilson and Evan Cowan, Solo : Evan Cowan

p.m. = palm mute

-|-------------------------------|-----------------------------|--------------
-|------3----3----------3--------|------3---------------3------|--------------
-|--0h2---2--4--2---0h2----1--2--|--0h2---2--4--2---0h2----0---|--------------
-|-------------------------0-----|-------------------------0---|--------------
-|-------------------------------|-----------------------------|--------------
-|-------------------------------|-----------------------------|--------------
G1

-|-------------------------------|-----------------------------|--------------
-|------3---------------3--------|------3---------------3------|--------------
-|--0h2---2--4--2---0h2----1--2--|--0h2---2--4--2---0h2----0---|--------------
-|-------------------------0-----|-------------------------0---|--------------
-|-------------------------------|-----------------------------|--------------
-|-------------------------------|-----------------------------|--------------
G1

-|-------------------------------|-----------------------------|--------------
-|-------------------------------|-------------------------3-3-|--------------
-|-------------------------------|-------------------------2-2-|--------------
-|-7---6---7-6-----x-x-x-x-x-x-x-|-7---6---7-6-----x-x-x-x-0-0-|--------------
-|-5---5---5-5-----x-x-x-x-x-x-x-|-5---5---5-5-----x-x-x-x-----|--------------
-|-------------------------------|-----------------------------|--------------
G2

-|--------------------------------------5-5-5-5-5-5-5-5-5-5-5-5-5-5-5---|-----
-|------3------------------3------------6-6-6-6-6-6-6-6-6-6-6-6-6-5-5---|-----
-|--0h2---2--2h4--2----0h2-----2h4--2---5-5-5-5-5-5-5-5-5-5-5-5-5-5-5---|-----
-|--------------------------------------5-5-5-5-5-5-5-5-5-5-5-5-5-5-5---|-----
-|----------------------------------------------------------------------|-----
-|----------------------------------------------------------------------|-----
G1 Got a gun fact I got two that’s ok man, cuz I love god

-|--------10----------------------10------------------------------------|-----
-|----------------------------------------------------------------------|-----
-|-----------------------------------0--10--10--10--10--10--10--10-10--|-----
-|-12-----------------------------------10--10--10--10--10--10--10-10--|-----
-|-12-------------------------------------------------------------------|-----
-|-10-------------------------------------------------------------------|-----
G2

-|------------------------------------------5-5-5-5-5-5-5-------------------|-
-|--3------------------3----------3---3-----6-6-6-6-6-6-6-5--5-5-5-5-5-5-5--|-
-|--2------------------2----------2---42---5-5-5-5-5-5-5-5--5-5-5-5-5-5-5--|-
-|--0------------------0------2h4---------0-5-5-5-5-5-5-5-5--5-5-5-5-5-5-5--|-
-|--------------------------------------------------------------------------|-
-|--------------------------------------------------------------------------|-
G1 Glorified version of a pellet gun feels so manly when armed

-|----------------10-----------------10-------------------------------------|-
-|--------------------------------------------------------------------------|-
-|--------------------------------------0-0-10----10------9-----------------|-
-|-12---------------------------------------10----10-----10--10-10-10-10-10-|-
-|-12--------------------------------------------------------10-10-10-10-10-|-
-|-10---------------------------------------------------------8--8--8--8--8-|-
G2

-|----------------------------------|--------------------------------|--------
-|-------3----3-----------3---------|-------3----------------3-------|--------
-|---0h2---2--4--2----0h2----1--2---|---0h2---2--4--2----0h2----0----|--------
-|---------------------------0------|---------------------------0----|--------
-|----------------------------------|--------------------------------|--------
-|----------------------------------|--------------------------------|--------
G1 Glorified version of a pellet gun glorified version of a pellet gun

-|----------------------------------|--------------------------------|--------
-|----------------------------------|--------------------------------|--------
-|----------------------------------|--------------------------------|--------
-|-7----6----7--6-----x-x-x-x-x-x-x-|-7----6----7--6---x-x-x-x-x-x-x-|--------
-|-5----5----5--5-----x-x-x-x-x-x-x-|-5----5----5--5---x-x-x-x-x-x-x-|--------
-|----------------------------------|--------------------------------|--------
G2

-|----------------------------------|--------------------------------|--------
-|-------3----------------3---------|-------3----------------3-------|--------
-|---0h2---2--4--2----0h2----1--2---|---0h2---2--4--2----0h2----0----|--------
-|---------------------------0------|---------------------------0----|--------
-|----------------------------------|--------------------------------|--------
-|----------------------------------|--------------------------------|--------
G1 Glorified version of a pellet gun glorified version of a pellet gun

-|----------------------------------|--------------------------------|--------
-|----------------------------------|--------------------------------|--------
-|----------------------------------|--------------------------------|--------
-|-7----6----7--6-----x-x-x-x-x-x-x-|-7----6----7--6---x-6-6-6-6-6-6-|--------
-|-5----5----5--5-----x-x-x-x-x-x-x-|-5----5----5--5---x-5-5-5-5-5-5-|--------
-|----------------------------------|--------------------------------|--------
G2

-|--------------------------------------5-5-5-5-5-5-5-5-5-5-5-5-5-5-5---|-----
-|------3------------------3------------6-6-6-6-6-6-6-6-6-6-6-6-6-5-5---|-----
-|--0h2-----2----------0h2--------------5-5-5-5-5-5-5-5-5-5-5-5-5-5-5---|-----
-|--------------------------------------5-5-5-5-5-5-5-5-5-5-5-5-5-5-5---|-----
-|----------------------------------------------------------------------|-----
-|----------------------------------------------------------------------|-----
G1 Don’t think dumb is strength never shot at a living thing

-|--------10------------------------------------------------------------|-----
-|------------10--------------------------------------------------------|-----
-|---------------11----------------0-0--10--10--10--10--10--10--10--9--|-----
-|-12------------------------------0-0--10--10--10--10--10--10--10-10--|-----
-|-12-------------------------------------------------------------------|-----
-|-10-------------------------------------------------------------------|-----
G2

-|------------------------------------------5-5-5-5-5-5-5------------------|--
-|--3-----------------------------3---------6-6-6-6-6-6-6-5--5-5-5-5-5-5-5-|--
-|--2-----------------------------2----4---5-5-5-5-5-5-5-5--5-5-5-5-5-5-5-|--
-|--0-------------------------2h4-----------5-5-5-5-5-5-5-5--5-5-5-5-5-5-5-|--
-|-------------------------------------------------------------------------|--
-|-------------------------------------------------------------------------|--
G1 Glorified version of a pellet gun feels so manly when armed

-|----------------10--------------------------------------------------------|-
-|--------------------------------------------------------------------------|-
-|--------------------------------------0-0-10----10------9-----------------|-
-|-12-----------------------------------0-0-10----10-----10--10-10-10-10-10-|-
-|-12--------------------------------------------------------10-10-10-10-10-|-
-|-10---------------------------------------------------------8--8--8--8--8-|-
G2

-|----------------------------------|--------------------------------|--------
-|-------3----3-----------3---------|-------3----------------3-------|--------
-|---0h2---2--4--2----0h2----1--2---|---0h2---2--4--2----0h2----0----|--------
-|---------------------------0------|---------------------------0----|--------
-|----------------------------------|--------------------------------|--------
-|----------------------------------|--------------------------------|--------
G1 Glorified version of a pellet gun glorified version of a pellet gun

-|----------------------------------|--------------------------------|--------
-|----------------------------------|--------------------------------|--------
-|----------------------------------|--------------------------------|--------
-|-7----6----7--6-----x-x-x-x-x-x-x-|-7----6----7--6---x-x-x-x-x-x-x-|--------
-|-5----5----5--5-----x-x-x-x-x-x-x-|-5----5----5--5---x-x-x-x-x-x-x-|--------
-|----------------------------------|--------------------------------|--------
G2

-|----------------------------------|--------------------------------|--------
-|-------3----------------3---------|-------3----------------3-------|--------
-|---0h2---2--4--2----0h2----1--2---|---0h2---2--4--2----0h2----0----|--------
-|---------------------------0------|---------------------------0----|--------
-|----------------------------------|--------------------------------|--------
-|----------------------------------|--------------------------------|--------
G1 Glorified version of a pellet gun glorified version of a

-|----------------------------------|--------------------------------|--------
-|----------------------------------|--------------------------------|--------
-|----------------------------------|--------------------------------|--------
-|-7----6----7--6-----x-x-x-x-x-x-x-|-7----6----7--6--x-x-x-x-6-6-x--|--------
-|-5----5----5--5-----x-x-x-x-x-x-x-|-5----5----5--5--x-x-x-x-5-5-x--|--------
-|----------------------------------|--------------------------------|--------
G2

-|-------------------------------------------------|--------------------------
-|-------------------------------------------------|--------------------------
-|--5---5-5-6---6-6-8---8-8-8-8-8-8-8-8-8-8-8-8-8--|--------------------------
-|--5---5-5-6---6-6-8---8-8-8-8-8-8-8-8-8-8-8-8-8--|--------------------------
-|--3---3-3-4---4-4-6---6-6-6-6-6-6-6-6-6-6-6-6-6--|--------------------------
-|-------------------------------------------------|--------------------------
G1+G2

-|-------------------------------|---------------------------------|----------
-|--5-5-5-6--6-6-8--8-8-8-9-9-8--|-5-5-5-6--6-6-8--9-9-9-9-8-------|----------
-|--5-5-5-6--6-6-8--8-8-8-8-8-8--|-5-5-5-6--6-6-8--8-8-8-8-8-8p6p5-|----------
-|--5-5-5-6--6-6-8--8-8-8-8-8-8--|-5-5-5-6--6-6-8--8-8-8-8-8-------|----------
-|--3-3-3-4--4-4-6--6-6-6-6-6-6--|-3-3-3-4--4-4-6--6-6-6-6-6-------|----------
-|-------------------------------|---------------------------------|----------
G1 Always keep it loaded Always keep it loaded

-|-------------------------------|---------------------------------|----------
-|-------------------------------|---------------------------------|----------
-|--5-5-5-6--6-6-8--8-8-8-8-8-8--|-5-5-5-6--6-6-8--8-8-8-8-8-8-8---|----------
-|--5-5-5-6--6-6-8--8-8-8-8-8-8--|-5-5-5-6--6-6-8--8-8-8-8-8-8-8---|----------
-|--3-3-3-4--4-4-6--6-6-6-6-6-6--|-3-3-3-4--4-4-6--6-6-6-6-6-6-6---|----------
-|-------------------------------|---------------------------------|----------
G2

-|-----------------------------------------------|----------------------------
-|-----------------------------------------------|----------------------------
-|--5-5-5-6--6-6-8--8-8---8-8---8---8-8---8------|----------------------------
-|--5-5-5-6--6-6-8--8-8---8-8---8---8-8---8------|----------------------------
-|--3-3-3-4--4-4-6--6-6---6-6---6---6-6---6------|----------------------------
-|-----------------------------------------------|----------------------------
G1 Always keep it loaded

-|-----------------------------------------------|----------------------------
-|-----------------------------------------------|----------------------------
-|--5-5-5-6--6-6-8--6-6---5-6---6---6-5---6-----|----------------------------
-|--5-5-5-6--6-6-8--8-8---8-8---8---8-8---8-----|----------------------------
-|--3-3-3-4--4-4-6-------------------------------|----------------------------
-|-----------------------------------------------|----------------------------
G2

-|-------------------------------------------------------------------3---3--|-
-|------3----3----------3--------------3----------------------3-----*6r5-3--|-
-|--0h2---2--4--2/--0h2---2--1--2--0h2---2--4--2/-x-x-x-x-0h2---2-0---------|-
-|---------------------------0----------------------------------0-0---------|-
-|--------------------------------------------------------------------------|-
-|--------------------------------------------------------------------------|-
G1 Kindred to be an american *pre-bend

-|-----------------------------------------------|----------------------------
-|------------3--3-------------3-----------------|----------------------------
-|--0h2--2-2--4--2---------0h2---2--1--2---------|----------------------------
-|-------0-0--0----0-0-0-0----------0----0-0-0-0-|----------------------------
-|-----------------------------------------------|----------------------------
-|-----------------------------------------------|----------------------------
G1 p.m.----| p.m.----|

-|---------------------------------------|------------------------------------
-|------3--------------------3-----------|------------------------------------
-|--0h2---2--4--2--------0h2---0--0---0--|------------------------------------
-|-----------------0-0-0----------0---0--|------------------------------------
-|---------------------------------------|------------------------------------
-|---------------------------------------|------------------------------------
G1 p.m.--|

-|---------------------------------------|------------------------------------
-|---------------------------------------|------------------------------------
-|---------------------------------------|------------------------------------
-|-----------------12-12-12-12-12-12-12--|------------------------------------
-|-----------------12-12-12-12-12-12-12--|------------------------------------
-|-----------------10-10-10-10-10-10-10--|------------------------------------
G2

-|------------------------------------------------------------|---------------
-|------3---------------3-----------6---6---6---6---6---5--5--|---------------
-|--0h2---2--4--2---0h2----2h4--2---5---5---5---5---5---5--5--|---------------
-|----------------------------------5---5---5---5---5---5--5--|---------------
-|------------------------------------------------------------|---------------
-|------------------------------------------------------------|---------------
G1 Life comes I can feel your heart

-|---------10-----------10-------10---------------------------|---------------
-|-------------10----------10---------------------------------|---------------
-|----------------11----------11----10--10--10--10--10---9----|---------------
-|-12-------------------------------10--10--10--10--10--10----|---------------
-|-12---------------------------------------------------------|---------------
-|-10---------------------------------------------------------|---------------
G2

-|------------------------------------------------------------|---------------
-|--3----3---3-3---------3---3-3-3--6---6---6-5---5-5-5-5-----|---------------
-|--2----2---2-2---------2---2-2-2--5---5---5-5---5-5-5-5-----|---------------
-|--0----0---0-0-----2h4-----0-0-0--5---5---5-5---5-5-5-5-----|---------------
-|------------------------------------------------------------|---------------
-|------------------------------------------------------------|---------------
G1 Life comes I can feel your heart in your neck

-|---------10-------------10----------------------------------|---------------
-|---------------------------10-------------------------------|---------------
-|----------------------------------10--10---9---9--9--9--9-0-|---------------
-|-12---------12--------------------10--10--10--10-10-10-10-0-|---------------
-|-12------------12-------------------------------------------|---------------
-|-10---------------------------------------------------------|---------------
G2

-|---------------------------------------------------------|------------------
-|--3----3----3--------3--5p3---3--6---6---5---5-5-5-5-----|------------------
-|--2----2----2--------2------2----5---5---5---5-5-5-5--5/-|------------------
-|--0----0----0----2h4-------------5---5---5---5-5-5-5-----|------------------
-|---------------------------------------------------------|------------------
-|---------------------------------------------------------|------------------
G1 Life comes I can feel your heart in your neck

-|--------10-----------10----------------------------------|------------------
-|------------10-----------10------------------------------|------------------
-|---------------------------------10--10--10--10--10---9--|------------------
-|-12------------------------------10--10--10--10--10--10--|------------------
-|-12------------------------------------------------------|------------------
-|-10------------------------------------------------------|------------------
G2

-|-------------2----5--3--2---------------------------------|-----------------
-|--3-----3------3-----------5---6---6---5---5-5-5-5--------|-----------------
-|--2-----2----------------------5---5---5---5-5-5-5--------|-----------------
-|--0-----0----------------------5---5---5---5-5-5-5--------|-----------------
-|----------------------------------------------------------|-----------------
-|----------------------------------------------------------|-----------------
G1 Like some I can steal your heart through your neck

-|---------10-------10---10---------------------------------|-----------------
-|-------------10------------10-----------------------------|-----------------
-|-------------------------------10--10---9---9--9--9--9--9-|-----------------
-|-12----------------------------10--10--10--10-10-10-10-10-|-----------------
-|-10h12----------------------------------------------------|-----------------
-|-10-------------------------------------------------------|-----------------
G2

-|------------------7-7------------|-7-------------------------|--------------
-|----------------------10b12r10---|---10-7---7----------------|--------------
-|-----7h9-7h9-9b11----------------|--------9---9b11r9-7---7---|--------------
-|-7h9-----------------------------|---------------------9-----|--------------
-|---------------------------------|---------------------------|--------------
-|---------------------------------|---------------------------|--------------
G1

-|---------------------------------|---------------------------|--------------
-|--3-/-5--3------3---------------|----------------3-------3--|--------------
-|--2-/-4--2---0--2----2/4--2-----|--2-/-4--2--0--2--2/4--2--|--------------
-|-----------------0----0----0-----|--0-------------0--0----0--|--------------
-|---------------------------------|---------------------------|--------------
-|---------------------------------|---------------------------|--------------
G2

-|-------------------|----------------|---------------------------------------
-|-------------------|----------------|---------------------------------------
-|-------------------|----------------|---------------------------------------
-|-9p7---7-----------|----------------|---------------------------------------
-|-----9---9-8-7-5---|-7b8-7-5---5/---|---------------------------------------
-|-----------------7-|----------------|---------------------------------------
G1

-|-------------------|----------------|---------------------------------------
-|---------3------3--|---3-3----3-3---|---------------------------------------
-|-2/42-0-2--2/4-2--|-------2------2-|---------------------------------------
-|-0-------0--0---0--|----------------|---------------------------------------
-|-------------------|----------------|---------------------------------------
-|-------------------|----------------|---------------------------------------
G2

-|-------10-------10----------|-------10-------10-------------|---------------
-|-10h12----10h12----10-------|-10h12----10h12-------------10-|---------------
-|----------------------11-/-|-------------------11--/11----|---------------
-|----------------------------|-------------------------------|---------------
-|----------------------------|-------------------------------|---------------
-|----------------------------|-------------------------------|---------------
G1 Glor - i - fied

-|----------------------------|-------------------------------|---------------
-|---------------3--------3---|---------------3----------3----|---------------
-|--2-/-4--2--0-2---2/4--2---|--2-/-4--2--0-2---2-/-4--2----|---------------
-|--0------------0---0----0---|--0------------0---0------0----|---------------
-|----------------------------|-------------------------------|---------------
-|----------------------------|-------------------------------|---------------
G2

-|-12p10----14p10----12p10----14p10----12p10----|-----------------------------
-|-------10-------10-------10-------10-------10-|-----------------------------
-|----------------------------------------------|-----------------------------
-|----------------------------------------------|-----------------------------
-|----------------------------------------------|-----------------------------
-|----------------------------------------------|-----------------------------
G1 Glor - i -

-|----------------------------------------------|-----------------------------
-|----------------------3-----------------------|-----------------------------
-|---2--/--4----2---0--2---------2-------------|-----------------------------
-|---0------------------0--------------0--------|-----------------------------
-|----------------------------------------------|-----------------------------
-|----------------------------------------------|-----------------------------
G2

-|-14p10----12p10----14p10----12p10----14p10----|-----------------------------
-|-------10-------10-------10-------10-------10-|-----------------------------
-|----------------------------------------------|-----------------------------
-|----------------------------------------------|-----------------------------
-|----------------------------------------------|-----------------------------
-|----------------------------------------------|-----------------------------
G1 -fied

-|----------------------------------------------|-----------------------------
-|---3--------------3--------------3------------|-----------------------------
-|--------2--------------2--------------2-------|-----------------------------
-|-------------0--------------0---------0-------|-----------------------------
-|----------------------------------------------|-----------------------------
-|----------------------------------------------|-----------------------------
G2

-|-12b14-12b14r12-10------|-12b14-12b14r12-10------|--------------------------
-|-------------------12-x-|-------------------12-x-|--------------------------
-|------------------------|------------------------|--------------------------
-|------------------------|------------------------|--------------------------
-|------------------------|------------------------|--------------------------
-|------------------------|------------------------|--------------------------
G1

-|------------------------|------------------------|--------------------------
-|--3/53-----3-------3---|------------3-------3---|--------------------------
-|--2/42--0--2---2/4-2---|--2/42--0--2---2/4-2---|--------------------------
-|--0---------0---0---0---|--0---------0---0---0---|--------------------------
-|------------------------|------------------------|--------------------------
-|------------------------|------------------------|--------------------------
G2

-|-10b12-10--7-------|-10-------10------------|-------------------------------
-|-------------10b12-|----10b12----10b12r10---|-------------------------------
-|-------------------|------------------------|-------------------------------
-|-------------------|------------------------|-------------------------------
-|-------------------|------------------------|-------------------------------
-|-------------------|------------------------|-------------------------------
G1

-|-------------------|------------------------|-------------------------------
-|---------3------3--|----3-----3-------------|-------------------------------
-|-2/42-0-2--2/4-2--|-------2-----2----------|-------------------------------
-|-0-------0--0---0--|----------------0--0--0-|-------------------------------
-|-------------------|------------------------|-------------------------------
-|-------------------|------------------------|-------------------------------
G2

-|--------------------------|-----------------------|-------------------------
-|-10-10---10-10-10---------|-10---10-10-10---------|-------------------------
-|-9--9b11-11-11-11r9-7-----|-9b11-11-11-11r9-7-----|-------------------------
-|----------------------9-7-|-------------------9-7-|-------------------------
-|--------------------------|-----------------------|-------------------------
-|--------------------------|-----------------------|-------------------------
G1 hold bend-----| hold bend-----|

-|--------------------------|-----------------------|-------------------------
-|----------------3------3--|------------3-------3--|-------------------------
-|--2-/-4--2--0--2--2/4-2--|--2/42--0--2---2/4-2--|-------------------------
-|--0-------------0--0---0--|--0---------0---0---0--|-------------------------
-|--------------------------|-----------------------|-------------------------
-|--------------------------|-----------------------|-------------------------
G2

-|-10b12--10---7------|-------------------------------------||----------------
-|---------------10-7-|---------10--------10----------------||----------------
-|--------------------|-b11r9-7----9b11---9b11--------------||----------------
-|--------------------|-------0-----------------------------||----------------
-|--------------------|-------------------------------------||----------------
-|--------------------|-------------------------------------||----------------
G1

-|--------------------|-------------------------------------||----------------
-|---------3----------|--3-3-----3-3-------3vvvvv-----------||----------------
-|-2/42-0-2--2/4--2--|------2-------2-----2------4vvvvv----||----------------
-|-0-------0--0-------|--------0-------0---0----------------||----------------
-|--------------------|--------------------0----------------||----------------
-|--------------------|-------------------------------------||----------------
G2


Ďalšie piesne z albumu

Go

Pearl Jam

Animal

Pearl Jam

Daughter

Pearl Jam

Dissident

Pearl Jam

W.M.A.

Pearl Jam

Blood

Pearl Jam

Rearviewmirror

Pearl Jam

Rats

Pearl Jam

Leash

Pearl Jam

Indifference

Pearl Jam

Novinky v katalógu

Najpopulárnejšie piesne interpreta

Yellow Ledbetter

Pearl Jam

Jeremy

Pearl Jam

Just Breathe

Pearl Jam

Black

Pearl Jam

The End

Pearl Jam

Unthought Known

Pearl Jam

Amongst The Waves

Pearl Jam

Alive

Pearl Jam

Got Some

Pearl Jam

Akordy

C C# D D# Es E F F# G G# As A A# B H 

Najčítanejšie