Pearl Jam: Akordy k piesni Go

Upraviť pieseň
Interpret: Pearl Jam

Dĺžka piesne: 03:12



Pearl Jam - Go (akordy)

Transpozícia ( -2 -1 0 +1 +2 )


Transcribed by: Chris Wilson / Evan Cowan
G1 is open-D tuning -- DADF#AD (low to high)
G2 is dropped-d -- DADGBE
G3 is standard

-|---|---|---|-------------------------------------------------------------|--
-|---|---|---|-------------------------------------------------------------|--
-|---|---|---|-------------------------------------------------------------|--
-|---|---|---|-------------------------------------------------------------|--
-|---|---|---|--------------2p0----------------2p0------------------2p0----|--
-|---|---|---|-0-0-0-0-2-3------3/--0-0-0-2-3------3/--0-0-0-0-2-3------3/-|--
G1 Bass/Drums with Fill 1

-|----------------------------------|-----------------------------------------
-|-5-5-5-5-7-7-7-8-8-8-10-8h10p85--|-----------------------------------------
-|----------------------------------|-----------------------------------------
-|----------------------------------|-----------------------------------------
-|----------------------------------|-----------------------------------------
-|----------------------------------|-----------------------------------------
Fill 1 (G2)

-|---------------|----------------------|---------------|---------------------
-|---------------|----------------------|---------------|---------------------
-|---------------|----------------------|---------------|---------------------
-|---------------|----------------------|---------------|---------------------
-|---------------|--------------2p0-----|---------------|---------------------
-|---------------|-0-0-0-0-2-3------3/--|-0--0-0-2--3---|---------------------
G1 (bass) 4x

-|-------------------------|--------------------------------------------------
-|-5--5--5--4--5--5--5--4--|--------------------------------------------------
-|-x--x--x--x--x--x--x--x--|--------------------------------------------------
-|-x--x--x--x--x--x--x--x--|--------------------------------------------------
-|-5--5--5--4--5--5--5--4--|--------------------------------------------------
-|-------------------------|--------------------------------------------------
G1

-|-------------------------|--------------------------------------------------
-|-------------------------|--------------------------------------------------
-|-7--7--7--6--7--7--7--6--|--------------------------------------------------
-|-x--x--x--x--x--x--x--x--|--------------------------------------------------
-|-5--5--5--4--5--5--5--4--|--------------------------------------------------
-|-------------------------|--------------------------------------------------
G2

-|----------------------|-----------------------|-----------------------|-----
-|----------------------|-----------------------|-----------------------|-----
-|----------------------|-----------------------|-----------------------|-----
-|----------------------|-----------------------|-----------------------|-----
-|--------------2p0-----|---------------2p0-----|---------------2p0-----|-----
-|-0-0-0-0-2-3------3/--|-0-0-0-0-2-3-------3/--|-0-0-0-0-2-3-------3/--|-----
G1+G2 2x Oh please don’t go out on me

-|-----------------------|-----------------------|----------------------------
-|-----------------------|-----------------------|----------------------------
-|-----------------------|-----------------------|----------------------------
-|-----------------------|-----------------------|----------------------------
-|---------------2p0-----|---------------2p0-----|----------------------------
-|-0-0-0-0-2-3-------3/--|-0-0-0-0-2-3-------3/--|----------------------------
G1+G2 Don’t go on me now never acted up before

-|-----------------------|-----------------------|----------------------------
-|-----------------------|-----------------------|----------------------------
-|-----------------------|-----------------------|----------------------------
-|-----------------------|-----------------------|----------------------------
-|---------------2p0-----|---------------2p0-----|----------------------------
-|-0-0-0-0-2-3-------3/--|-0-0-0-0-2-3-------3/--|----------------------------
G1+G2 Don’t go on me now I swear I never took it for granted

-|-----------------------|-----------------------|-----------------------|----
-|-----------------------|-----------------------|-----------------------|----
-|-----------------------|-----------------------|-----------------------|----
-|-----------------------|-----------------------|-----------------------|----
-|---------------2p0-----|---------------2p0-----|---------------2p0-----|----
-|-0-0-0-0-2-3-------3/--|-0-0-0-0-2-3-------3/--|-0-0-0-0-2-3-------3/--|----
G1+G2 Just thought of it now suppose I abused you just passing it on

-|--------------------------------|--------------------------------|----------
-|-5--5--54--4---5--5--5--4--2p0-|-5--5--54--4---5--5--5--4--2p0-|----------
-|-x--x--x----x---x--x--x--x--x---|-x--x--x----x---x--x--x--x--x---|----------
-|-x--x--x----x---x--x--x--x--x---|-x--x--x----x---x--x--x--x--x---|----------
-|-5--5--54--4---5--5--5--4--2p0-|-5--5--54--4---5--5--5--4--2p0-|----------
-|--------------------------------|--------------------------------|----------
G1 Go fuck

-|--------------------------------|--------------------------------|----------
-|--------------------------------|--------------------------------|----------
-|-7--7--76--6---7--7--7--6--42-|-7--7--76--6---7--7--7--6--42-|----------
-|-x--x--x----x---x--x--x--x--x---|-x--x--x----x---x--x--x--x--x---|----------
-|-5--5--54--4---5--5--5--4--2-|-5--5--54--4---5--5--5--4--2-|----------
-|--------------------------------|--------------------------------|----------
G2

-|--------------------------|-----------------------|-----------------------|-
-|--------------------------|-----------------------|-----------------------|-
-|--------------------------|-----------------------|-----------------------|-
-|--------------------------|-----------------------|-----------------------|-
-|------------------2p0-----|---------------2p0-----|---------------2p0-----|-
-|----0-0-0-0-2-3-------3/--|-0-0-0-0-2-3-------3/--|-0-0-0-0-2-3-------3/--|-
G1+G2 Once fastened servile now you’re getting sharp moving oh so swiftly

-|--------------------------|-----------------------|-----------------------|-
-|--------------------------|-----------------------|-----------------------|-
-|--------------------------|-----------------------|-----------------------|-
-|--------------------------|-----------------------|-----------------------|-
-|------------------2p0-----|---------------2p0-----|---------------2p0-----|-
-|----0-0-0-0-2-3-------3/--|-0-0-0-0-2-3-------3/--|-0-0-0-0-2-3-------3/--|-
G1+2 With such disarm I pulled the covers over him shoulda pulled the alarm

-|---------------------------|------------------------|-----------------------
-|---------------------------|------------------------|-----------------------
-|---------------------------|------------------------|-----------------------
-|---------------------------|------------------------|-----------------------
-|-------------------2p0-----|----------------2p0-----|-----------------------
-|-----0-0-0-0-2-3-------3/--|--0-0-0-0-2-3-------3/--|-----------------------
G1+G2 Turned to my nemesis a full on fucking god

-|--------------------------------|--------------------------------|----------
-|-5--5--54--4---5--5--5--4--2p0-|-5--5--54--4---5--5--5--4--2p0-|----------
-|-x--x--x----x---x--x--x--x--x---|-x--x--x----x---x--x--x--x--x---|----------
-|-x--x--x----x---x--x--x--x--x---|-x--x--x----x---x--x--x--x--x---|----------
-|-5--5--54--4---5--5--5--4--2p0-|-5--5--54--4---5--5--5--4--2p0-|----------
-|--------------------------------|--------------------------------|----------
G1 No time

-|--------------------------------|--------------------------------|----------
-|--------------------------------|--------------------------------|----------
-|-7--7--76--6---7--7--7--6--42-|-7--7--76--6---7--7--7--6--42-|----------
-|-x--x--x----x---x--x--x--x--x---|-x--x--x----x---x--x--x--x--x---|----------
-|-5--5--54--4---5--5--5--4--2-|-5--5--54--4---5--5--5--4--2-|----------
-|--------------------------------|--------------------------------|----------
G2

-|--------------------------------|--------------------------------|----------
-|-5--5--54--4---5--5--5--4--2p0-|-5--5--54--4---5--5--5--4--2p0-|----------
-|-x--x--x----x---x--x--x--x--x---|-x--x--x----x---x--x--x--x--x---|----------
-|-x--x--x----x---x--x--x--x--x---|-x--x--x----x---x--x--x--x--x---|----------
-|-5--5--54--4---5--5--5--4--2p0-|-5--5--54--4---5--5--5--4--2p0-|----------
-|--------------------------------|--------------------------------|----------
G1 Such burn

-|--------------------------------|--------------------------------|----------
-|--------------------------------|--------------------------------|----------
-|-7--7--76--6---7--7--7--6--42-|-7--7--76--6---7--7--7--6--42-|----------
-|-x--x--x----x---x--x--x--x--x---|-x--x--x----x---x--x--x--x--x---|----------
-|-5--5--54--4---5--5--5--4--2-|-5--5--54--4---5--5--5--4--2-|----------
-|--------------------------------|--------------------------------|----------
G2

-|--12------12------12----------12----|--12------12------12----------12----|--
-|-----12-------12-----12-12h15----15-|-----15------15------15-12h15----12-|--
-|------------------------------------|------------------------------------|--
-|------------------------------------|------------------------------------|--
-|------------------------------------|------------------------------------|--
-|------------------------------------|------------------------------------|--
G1 Please don’t go on me don’t go on me

-|------------------------------------|------------------------------------|--
-|------------------------------------|------------------------------------|--
-|------------------------------------|------------------------------------|--
-|----------------------8--8--8--8--8-|----------------------8--8--8--8--8-|--
-|--------------2p0-----8--8--8--8--8-|--------------2p0-----8--8--8--8--8-|--
-|-0-0-0-0-2-3------3/--8--8--8--8--8-|-0-0-0-0-2-3------3/--8--8--8--8--8-|--
G2

-|--12------12------12----------12----|--12------12------12----------12----|--
-|-----12------12------12-12h15----15-|-----15------15------15-12h15----12-|--
-|------------------------------------|------------------------------------|--
-|------------------------------------|------------------------------------|--
-|------------------------------------|------------------------------------|--
-|------------------------------------|------------------------------------|--
G1 Don’t go on me don’t go on me

-|------------------------------------|------------------------------------|--
-|------------------------------------|------------------------------------|--
-|------------------------------------|------------------------------------|--
-|----------------------8--8--8--8--8-|----------------------8--8--8--8--8-|--
-|--------------2p0-----8--8--8--8--8-|--------------2p0-----8--8--8--8--8-|--
-|-0-0-0-0-2-3------3/--8--8--8--8--8-|-0-0-0-0-2-3------3/--8--8--8--8--8-|--
G2

-|-12----12----12-----11-----10-------|---------------------------------------
-|----12----12----12-----11-----10---|---------------------------------------
-|------------------------------------|---------------------------------------
-|------------------------------------|---------------------------------------
-|------------------------------------|---------------------------------------
-|------------------------------------|---------------------------------------
G1

-|------------------------------------|---------------------------------------
-|------------------------------------|---------------------------------------
-|------------------------------------|---------------------------------------
-|----------------------8--8--8--8--8-|---------------------------------------
-|--------------2p0-----8--8--8--8--8-|---------------------------------------
-|-0-0-0-0-2-3------3/--8--8--8--8--8-|---------------------------------------
G2

-|---------------------|-------------------------------|----------------------
-|---------------------|-------------------------------|----------------------
-|---------------------|-------------------------------|----------------------
-|---------------------|-------------------------------|----------------------
-|--------------2p0----|---------------------2p0-------|----------------------
-|-0-0-0-0-2-3------3/-|-0--0--0--0--2--3---------3/---|----------------------
G1

-|-15b17---------------|-15b17-15b17-15b17-15b17-15b17-|----------------------
-|---------------------|-------------------------------|----------------------
-|---------------------|-------------------------------|----------------------
-|---------------------|-------------------------------|----------------------
-|---------------------|-------------------------------|----------------------
-|---------------------|-------------------------------|----------------------
G2 (with wah)

-|-------------------------------------------------------------------------|--
-|-------------------------------------------------------------------------|--
-|-------------------------------------------------------------------------|--
-|-------------------------------------------------------------------------|--
-|---------------------------------------------2---p---0-------------------|--
-|-0------0------0------0------2------3--------------------3/--------------|--
G1

-|-15b17r15-13----13-------------------10----------------------------------|--
-|-------------15----15-13h15p13-10-13----13-10-13-------------------------|--
-|-------------------------------------------------12b13r12-10----10-12p10-|--
-|-------------------------------------------------------------12----------|--
-|-------------------------------------------------------------------------|--
-|-------------------------------------------------------------------------|--
G2

-|---------------------------------------------------------|------------------
-|---------------------------------------------------------|------------------
-|---------------------------------------------------------|------------------
-|---------------------------------------------------------|------------------
-|----------------------------------2--p--0----------------|------------------
-|-0----0----0----0----2----3----------------3/------------|------------------
G1

-|---------------------------------------------------------|------------------
-|---------------------------------------------------------|------------------
-|----12p10----10-12-b13r12-10----10-12-b13r12-10----10-12-|------------------
-|-12-------12-----------------12-----------------12-------|------------------
-|---------------------------------------------------------|------------------
-|---------------------------------------------------------|------------------
G2

-|------------------------------------------------------------|---------------
-|------------------------------------------------------------|---------------
-|------------------------------------------------------------|---------------
-|------------------------------------------------------------|---------------
-|--------------------------------------2--p--0---------------|---------------
-|-0-----0-----0-----0-----2-----3----------------3/----------|---------------
G1

-|-------------------10----------10----------10-13------------|---------------
-|-------10-13-10-------13-10-------13-10---------10----------|---------------
-|-12b13----------12----------12----------12--------12-10--10-|---------------
-|-------------------------------------------------------12---|---------------
-|------------------------------------------------------------|---------------
-|------------------------------------------------------------|---------------
G2

-|------------------------------------------------------------|---------------
-|------------------------------------------------------------|---------------
-|------------------------------------------------------------|---------------
-|------------------------------------------------------------|---------------
-|--------------------------------------2--p--0---------------|---------------
-|-0-----0-----0-----0-----2-----3----------------3/----------|---------------
G1

-|------------------------------------------------------------|---------------
-|----10h13p10------------------------------------------------|---------------
-|-12----------12-12-12-10-12-10----10-10b11-10---------------|---------------
-|-------------------------------12-------------12-10-12-10---|---------------
-|---------------------------------------------------------12-|---------------
-|------------------------------------------------------------|---------------
G2

-|-------------------------------------|--------------------------------------
-|-------------------------------------|--------------------------------------
-|-------------------------------------|--------------------------------------
-|-------------------------------------|--------------------------------------
-|--------------------------2p0--------|--------------------------------------
-|-0---0---0---0---2---3--------3/-----|--------------------------------------
G1

-|-------------------------------------|--------------------------------------
-|-------------------------------------|--------------------------------------
-|-------------------------------------|--------------------------------------
-|-10h12-10-10-------------------------|--------------------------------------
-|-------------12-10-8-10b11r10-8-10p8-|--------------------------------------
-|-------------------------------------|--------------------------------------
G2

-|--------------------------------------------|-------------------------------
-|--------------------------------------------|-------------------------------
-|--------------------------------------------|-------------------------------
-|--------------------------------------------|-------------------------------
-|--------------------------------2p0---------|-------------------------------
-|-0----0----0----0----2----3----------3/-----|-------------------------------
G1

-|--------------------------------------------|-------------------------------
-|--------------------------------------------|-------------------------------
-|----------------10-12----10h12p10----10----|-------------------------------
-|----------10-12-------12----------12--------|-------------------------------
-|-10-10/12-----------------------------------|-------------------------------
-|--------------------------------------------|-------------------------------
G2

-|----------------------------------|----------------------------------|------
-|--5--5--54--4---5--5--5--4--2p0--|--5--5--54--4---5--5--5--4--2p0--|------
-|--x--x--x----x---x--x--x--x--x----|--x--x--x----x---x--x--x--x--x----|------
-|--x--x--x----x---x--x--x--x--x----|--x--x--x----x---x--x--x--x--x----|------
-|--5--5--54--4---5--5--5--4--2p0--|--5--5--54--4---5--5--5--4--2p0--|------
-|----------------------------------|----------------------------------|------
G1 Suck blood touch please tunnel vision

-|----------------------------------|----------------------------------|------
-|----------------------------------|----------------------------------|------
-|--7--7--76--6---7--7--7--6--42--|--7--7--76--6---7--7--7--6--42--|------
-|--x--x--x----x---x--x--x--x--x----|--x--x--x----x---x--x--x--x--x----|------
-|--5--5--54--4---5--5--5--4--2--|--5--5--54--4---5--5--5--4--2--|------
-|----------------------------------|----------------------------------|------
G2

-|----------------------------------|----------------------------------|------
-|--5--5--54--4---5--5--5--4--2p0--|--5--5--54--4---5--5--5--4--2p0--|------
-|--x--x--x----x---x--x--x--x--x----|--x--x--x----x---x--x--x--x--x----|------
-|--x--x--x----x---x--x--x--x--x----|--x--x--x----x---x--x--x--x--x----|------
-|--5--5--54--4---5--5--5--4--2p0--|--5--5--54--4---5--5--5--4--2p0--|------
-|----------------------------------|----------------------------------|------
G1 Took time see please please

-|----------------------------------|----------------------------------|------
-|----------------------------------|----------------------------------|------
-|--7--7--76--6---7--7--7--6--42--|--7--7--76--6---7--7--7--6--42--|------
-|--x--x--x----x---x--x--x--x--x----|--x--x--x----x---x--x--x--x--x----|------
-|--5--5--54--4---5--5--5--4--2--|--5--5--54--4---5--5--5--4--2--|------
-|----------------------------------|----------------------------------|------
G2

-|--12------12------12----------12----|--12------12------12----------12----|--
-|-----12------12------12-12h15----15-|-----15------15------15-12h15----12-|--
-|------------------------------------|------------------------------------|--
-|------------------------------------|------------------------------------|--
-|------------------------------------|------------------------------------|--
-|------------------------------------|------------------------------------|--
G1 Please don’t go on me don’t go on me

-|------------------------------------|------------------------------------|--
-|------------------------------------|------------------------------------|--
-|------------------------------------|------------------------------------|--
-|-8--8--8--8--8----------------------|-8--8--8--8--8----------------------|--
-|-8--8--8--8--8---------------2p0----|-8--8--8--8--8---------------2p0----|--
-|-8--8--8--8--8--0-0-0-0-2-3------3/-|-8--8--8--8--8--0-0-0-0-2-3------3/-|--
G2

-|------------------------------------|------------------------------------|--
-|-6----------------------------------|-6---------------------------------|--
-|-8b10-------------------------------|-8b10------------------------------|--
-|------------------------------------|------------------------------------|--
-|------------------------------------|------------------------------------|--
-|------------------------------------|------------------------------------|--
G3

-|--12------12------12----------12----|--12------12------12----------12----|--
-|-----12------12------12-12h15----15-|-----15------15------15-12h15----12-|--
-|------------------------------------|------------------------------------|--
-|------------------------------------|------------------------------------|--
-|------------------------------------|------------------------------------|--
-|------------------------------------|------------------------------------|--
G1 don’t go on me don’t go on me

-|------------------------------------|------------------------------------|--
-|------------------------------------|------------------------------------|--
-|------------------------------------|------------------------------------|--
-|-8--8--8--8--8----------------------|-8--8--8--8--8----------------------|--
-|-8--8--8--8--8---------------2p0----|-8--8--8--8--8---------------2p0----|--
-|-8--8--8--8--8--0-0-0-0-2-3------3/-|-8--8--8--8--8--0-0-0-0-2-3------3/-|--
G2

-|------------------------------------|------------------------------------|--
-|-6---------------------------------|-6---------------------------------|--
-|-8b10------------------------------|-8b10------------------------------|--
-|------------------------------------|------------------------------------|--
-|------------------------------------|------------------------------------|--
-|------------------------------------|------------------------------------|--
G3

-|--12------12------12----------12----|--12------12------12----------12----|--
-|-----12------12------12-12h15----15-|-----15------15------15-12h15----12-|--
-|------------------------------------|------------------------------------|--
-|------------------------------------|------------------------------------|--
-|------------------------------------|------------------------------------|--
-|------------------------------------|------------------------------------|--
G1 Please don’t you want me don’t go on me

-|------------------------------------|------------------------------------|--
-|------------------------------------|------------------------------------|--
-|------------------------------------|------------------------------------|--
-|-8--8--8--8--8----------------------|-8--8--8--8--8----------------------|--
-|-8--8--8--8--8---------------2p0----|-8--8--8--8--8---------------2p0----|--
-|-8--8--8--8--8--0-0-0-0-2-3------3/-|-8--8--8--8--8--0-0-0-0-2-3------3/-|--
G2

-|------------------------------------|------------------------------------|--
-|-6---------------------------------|-6---------------------------------|--
-|-8b10------------------------------|-8b10------------------------------|--
-|------------------------------------|------------------------------------|--
-|------------------------------------|------------------------------------|--
-|------------------------------------|------------------------------------|--
G3

-|--12------12------12----------12----|--12------12-----12-----------------|--
-|-----12------12------12-12h15----15-|-----15------15-----15--------------|--
-|------------------------------------|------------------------------------|--
-|------------------------------------|------------------------------------|--
-|------------------------------------|------------------------------------|--
-|------------------------------------|------------------------------15---|--
G1 Please don’t go on me

-|------------------------------------|------------------------------------|--
-|------------------------------------|------------------------------------|--
-|------------------------------------|------------------------------------|--
-|-8--8--8--8--8----------------------|-8--8--8--8--8----------------------|--
-|-8--8--8--8--8---------------2p0----|-8--8--8--8--8---------------2p0----|--
-|-8--8--8--8--8--0-0-0-0-2-3------3/-|-8--8--8--8--8--0-0-0-0-2-3------3/-|--
G2

-|------------------------------------|------------------------------------|--
-|-6---------------------------------|-6---------------------------------|--
-|-8b10------------------------------|-8b10------------------------------|--
-|------------------------------------|------------------------------------|--
-|------------------------------------|------------------------------------|--
-|------------------------------------|------------------------------------|--
G3

-|-----------------------------------|-------------------------------------|--
-|-----------------------------------|-------------------------------------|--
-|-----------------------------------|-------------------------------------|--
-|-----------------------------------|-------------------------------------|--
-|---------------------2-p-0---------|---------------------2-p-0-----------|--
-|-0--0--0--0--2--3----------3/------|-0--0--0--0--2--3-----------3/-------|--
G1

-|-----10----10----10----10----10----|-10----10----10----10----10----10----|--
-|-----13b15-13b15-13b15-13b15-13b15-|-13b15-13b15-13b15-13b15-13b15-13b15-|--
-|-----------------------------------|-------------------------------------|--
-|-----------------------------------|-------------------------------------|--
-|-----------------------------------|-------------------------------------|--
-|-----------------------------------|-------------------------------------|--
G2 (with wah)

-|-----------------------------------|-------------------------------------|--
-|-----------------------------------|-------------------------------------|--
-|-----------------------------------|-------------------------------------|--
-|-----------------------------------|-------------------------------------|--
-|---------------------2-p-0---------|---------------------2-p-0-----------|--
-|-0--0--0--0--2--3----------3/------|-0--0--0--0--2--3-----------3/-------|--
G1

-|-----12----12----12----12----12----|-12----12----12----12----12----12----|--
-|-----15b17-15b17-15b17-15b17-15b17-|-15b17-15b17-15b17-15b17-15b17-15b17-|--
-|-----------------------------------|-------------------------------------|--
-|-----------------------------------|-------------------------------------|--
-|-----------------------------------|-------------------------------------|--
-|-----------------------------------|-------------------------------------|--
G2

-|-----------------------------------|-----------------------------------|----
-|-----------------------------------|-----------------------------------|----
-|-----------------------------------|-----------------------------------|----
-|-----------------------------------|-----------------------------------|----
-|---------------------2-p-0---------|---------------------2-p-0---------|----
-|-0--0--0--0--2--3----------3/------|-0--0--0--0--2--3-----------3/-----|----
G1

-|-----13----13----13----13----13----|-----13----13----13----13----13----|----
-|-----16b18-16b18-16b18-16b18-16b18-|-----16b18-16b18-16b18-16b18-16b18-|----
-|-----------------------------------|-----------------------------------|----
-|-----------------------------------|-----------------------------------|----
-|-----------------------------------|-----------------------------------|----
-|-----------------------------------|-----------------------------------|----
G2

-|-----------------------------------|-----------------------------------|----
-|-----------------------------------|-----------------------------------|----
-|-----------------------------------|-----------------------------------|----
-|-----------------------------------|-----------------------------------|----
-|---------------------2-p-0---------|---------------------2-p-0---------|----
-|-0--0--0--0--2--3----------3/------|-0--0--0--0--2--3----------3/------|----
G1

-|-----15----15----15----15----15----|-----15----15----15----15----15----|----
-|-----18b20-18b20-18b20-18b20-18b20-|-----18b20-18b20-18b20-18b20-18b20-|----
-|-----------------------------------|-----------------------------------|----
-|-----------------------------------|-----------------------------------|----
-|-----------------------------------|-----------------------------------|----
-|-----------------------------------|-----------------------------------|----
G2

-|------------------------------------|-------------------------------------|-
-|------------------------------------|-------------------------------------|-
-|------------------------------------|-------------------------------------|-
-|------------------------------------|-------------------------------------|-
-|---------------------2-p-0----------|---------------------2-p-0-----------|-
-|-0--0--0--0--2--3-----------3/------|-0--0--0--0--2--3-----------3/-------|-
G1

-|-17----17----17----17----17----17---|-17----17----17----17----17----17----|-
-|-20b22-20b22-20b22-20b22-20b22-20b22|-20b22-20b22-20b22-20b22-20b22-20b22-|-
-|------------------------------------|-------------------------------------|-
-|------------------------------------|-------------------------------------|-
-|------------------------------------|-------------------------------------|-
-|------------------------------------|-------------------------------------|-
G2

-|------------------------------------|-------------------------------------|-
-|------------------------------------|-------------------------------------|-
-|------------------------------------|-------------------------------------|-
-|------------------------------------|-------------------------------------|-
-|---------------------2-p-0----------|---------------------2-p-0-----------|-
-|-0--0--0--0--2--3-----------3/------|-0--0--0--0--2--3-----------3/-------|-
G1

-|-17----17----17----17----17----17---|-17----17----17----17----17----17----|-
-|-20b22-20b22-20b22-20b22-20b22-20b22|-20b22-20b22-20b22-20b22-20b22-20b22-|-
-|------------------------------------|-------------------------------------|-
-|------------------------------------|-------------------------------------|-
-|------------------------------------|-------------------------------------|-
-|------------------------------------|-------------------------------------|-
G2

-|------------------------------------|-------------------------------------|-
-|------------------------------------|-------------------------------------|-
-|------------------------------------|-------------------------------------|-
-|------------------------------------|-------------------------------------|-
-|---------------------2-p-0----------|---------------------2-p-0-----------|-
-|-0--0--0--0--2--3-----------3/------|-0--0--0--0--2--3-----------3/-------|-
G1

-|-17----17----17----17----17----17---|-17----17----17----17----17----17----|-
-|-20b22-20b22-20b22-20b22-20b22-20b22|-20b22-20b22-20b22-20b22-20b22-20b22-|-
-|------------------------------------|-------------------------------------|-
-|------------------------------------|-------------------------------------|-
-|------------------------------------|-------------------------------------|-
-|------------------------------------|-------------------------------------|-
G2

-|-------------------------------------|--------------------------------------
-|-------------------------------------|--------------------------------------
-|-------------------------------------|--------------------------------------
-|-------------------------------------|--------------------------------------
-|---------------------2-p-0-----------|--------------------------------------
-|-0--0--0--0--2--3-----------3/-------|--------------------------------------
G1

-|-17----17----17----17----17----17----|--------------------------------------
-|-20b22-20b22-20b22-20b22-20b22-20b22-|--------------------------------------
-|-------------------------------------|--------------------------------------
-|-------------------------------------|--------------------------------------
-|-------------------------------------|--------------------------------------
-|-------------------------------------|--------------------------------------
G2

-|-------------------------------------------------|---------------||---------
-|-------------------------------------------------|---------------||---------
-|-------------------------------------------------|---------------||---------
-|-------------------------------------------------|---------------||---------
-|-------------------------------------------------|---------------||---------
-|-12-12-12-12-12-12-12-12-12-12-12-12-12-12-12-12-|-12------------||---------
G1

-|-20----------------------------------------------|---------------||---------
-|-20b22-------------------------------------------|-20------------||---------
-|--/----------------------------------------------|---------------||---------
-|--/----------------------------------------------|---------------||---------
-|-------------------------------------------------|---------------||---------
-|-------------------------------------------------|---------------||---------
G2 trem pick


Ďalšie piesne z albumu

Animal

Pearl Jam

Daughter

Pearl Jam

Glorified G

Pearl Jam

Dissident

Pearl Jam

W.M.A.

Pearl Jam

Blood

Pearl Jam

Rearviewmirror

Pearl Jam

Rats

Pearl Jam

Leash

Pearl Jam

Indifference

Pearl Jam

Novinky v katalógu

Najpopulárnejšie piesne interpreta

Yellow Ledbetter

Pearl Jam

Jeremy

Pearl Jam

Just Breathe

Pearl Jam

Black

Pearl Jam

The End

Pearl Jam

Unthought Known

Pearl Jam

Amongst The Waves

Pearl Jam

Alive

Pearl Jam

Got Some

Pearl Jam

Akordy

C C# D D# Es E F F# G G# As A A# B H 

Najčítanejšie