Pearl Jam: Akordy k piesni Leash

Upraviť pieseň
Interpret: Pearl Jam

Dĺžka piesne: 03:09



Pearl Jam - Leash (akordy)

Transpozícia ( -2 -1 0 +1 +2 )



Dropped-D tuning


-|-----------|--------------------------------------------------|-------------
-|-----------|--------------------------------------------------|-------------
-|-----------|--------------------------------------------------|-------------
-|-----------|-/9-9-9-9-9-9-9-9-9-9-9-9-9-9-9-9-9-9-9-9-9-9-9-9-|-------------
-|-----------|----x-x-x-x-x-x-x-x-x-x-x-x-x-x-x-x-x-x-x-x-x-x-x-|-------------
-|-----------|-/9-9-9-9-9-9-9-9-9-9-9-9-9-9-9-9-9-9-9-9-9-9-9-9-|-------------
(feedback)

-|-------------------------------------------------------|---|------------|---
-|-------------------------------------------------------|---|-10-12------|---
-|-------------------------------------------------------|---|-------9h11-|---
-|-7-/-9--9---9-------9--9-9-9-9-9-9-9-9-9-9-9-9-9-9-9-9-|-9-|------------|---
-|-7-/-9--9---9-------9--9-9-9-9-9-9-9-9-9-9-9-9-9-9-9-9-|---|------------|---
-|-7-/-9--9---9h10p9--9--9-9-9-9-9-9-9-9-9-9-9-9-9-9-9-9-|---|------------|---
Verse 4x G2(w/wah) 4x

-|------------------|----------------------|------------------------------|---
-|------------------|----------------------|------------------------------|---
-|------------------|----------------------|------------------------------|---
-|-7-7-7-10-11-12-7-|----------10-11-12----|-10--10-10-10--10--10-10-10---|---
-|-7-7-7-10-11-12-7-|-12-12-12----------12-|-10--10-10-10--10--10-10-10---|---
-|-7-7-7-10-11-12-7-|----------------------|-10--10-10-10--10--10-10-10---|---
G1 G2 Chorus, G1

-|-------------------------------------------------------------------------|--
-|-------------------------------------------------------------------------|--
-|-------------------------------------------------------------------------|--
-|-10--10-10-10--10--10-10-10--8-8-8-8--8--8-8-8--10--10-10--10--10-10-10--|--
-|--8---8--8--8---8---8--8--8--8-8-8-8--8--8-8-8--10--10-10--10--10-10-10--|--
-|-----------------------------8-8-8-8--8--8-8-8--10--10-10--10--10-10-10--|--
2x

-|------------------------|-----------------------|---------------------------
-|------------------------|-----------------------|---------------------------
-|---7--7--7--5--5--5--5--|--3--3--3--5--5--5--5--|---------------------------
-|---x--x--x--x--x--x--x--|--x--x--x--x--x--x--x--|---------------------------
-|---5--5--5--3--3--3--3--|--1--1--1--3--3--3--3--|---------------------------
-|------------------------|-----------------------|---------------------------
G2 8x

-|-------------------------------------------------------|------------|-------
-|-------------------------------------------------------|-10-12------|-------
-|-------------------------------------------------------|-------9-11-|-------
-|-7-/-9--9---9-------9--9-9-9-9-9-9-9-9-9-9-9-9-9-9-9-9-|------------|-------
-|-7-/-9--9---9-------9--9-9-9-9-9-9-9-9-9-9-9-9-9-9-9-9-|------------|-------
-|-7-/-9--9---9h10p9--9--9-9-9-9-9-9-9-9-9-9-9-9-9-9-9-9-|------------|-------
|-------------------------6x----------------------------G2---------|

-|-------------------|----------------------|-----------|---------------------
-|-------------------|----------------------|-----------|---------------------
-|-------------------|----------------------|-----------|---------------------
-|-7-7-7-10-11-12-7--|----------10-11-12----|-----------|---------------------
-|-7-7-7-10-11-12-7--|-12-12-12----------12-|-----------|---------------------
-|-7-7-7-10-11-12-7--|----------------------|-----------|---------------------
G1 G2 Chorus, 6x

-|----------------------------------------------------------|-----------------
-|-15-15-15-13-13-13-10-10-10-13-13-13-15-15-15-15-13-11-11-|-----------------
-|----------------------------------------------------------|-----------------
-|----------------------------------------------------------|-----------------
-|----------------------------------------------------------|-----------------
-|----------------------------------------------------------|-----------------
Solo

-|---------------------------------------------------------15-17-15--17-15-|--
-|-13--15--13--15--17--18--17--15--17--18--17--15--17--18------------------|--
-|-------------------------------------------------------------------------|--
-|-------------------------------------------------------------------------|--
-|-------------------------------------------------------------------------|--
-|-------------------------------------------------------------------------|--
Hit each note a few times

-|-------15-------15-------15-------15-------15-----|-------------------------
-|-15h17----15h17----15h17----15h17----15h17----17-|-------------------------
-|--------------------------------------------------|-------------------------
-|--------------------------------------------------|-------------------------
-|--------------------------------------------------|-------------------------
-|--------------------------------------------------|-------------------------


-|------------------------------------------------------------|-------------|-
-|------------------------------------------------------------|-11-13-------|-
-|------------------------------------------------------------|-------10-12-|-
-|-8-/-10-10--10-------10-10-10-10-10-10-10-10-10-10-10-10-10-|-------------|-
-|-8-/-10-10--10-------10-10-10-10-10-10-10-10-10-10-10-10-10-|-------------|-
-|-8-/-10-10--10h11p10-10-10-10-10-10-10-10-10-10-10-10-10-10-|-------------|-
|-----------------------------4x-----------------------------G2----------|

-|---------------------------|----------------------------------------|-------
-|---------------------------|-20----20----------20-------20-------20-|-------
-|---------------------------|-19b21-19b21-19b21----19b21----19b21----|-------
-|---------------------------|----------------------------------------|-------
-|---------------------------|----------------------------------------|-------
-|---------------------------|----------------------------------------|-------
Chorus riff, 2x under solo Solo, G2(w/wah)

-|--------------------------------------------------------------------------|-
-|------------------------------------------------------------------17-20-17|-
-|-19b21r19-17----17-19-17----17---------------------17h19p17-19b21---------|-
-|-------------19----------19-----19-17----17--17h19------------------------|-
-|--------------------------------------19----------------------------------|-
-|--------------------------------------------------------------------------|-


-|-20b22-20-17----17-------20b22-20-17-------20b22-20-17-------------17-|-----
-|-------------20----20-17-------------20-17-------------20-17-20b22----|-----
-|----------------------------------------------------------------------|-----
-|----------------------------------------------------------------------|-----
-|----------------------------------------------------------------------|-----
-|----------------------------------------------------------------------|-----


-|----------------------20b22-20-17-------------17----------------------|-----
-|-20-17----------17-17-------------20-17-20b22----20-17----------------|-----
-|-------19b21r19----------------------------------------19b21r19-17----|-----
-|-------------------------------------------------------------------19-|-----
-|----------------------------------------------------------------------|-----
-|----------------------------------------------------------------------|-----


-|-------------------------------|------------------------------------------|-
-|-------------------------------|-----------------7------------------------|-
-|-17h19p17----------------------|-----5h7p5---7b9---7p5--7p5---5---7b9-7b9-|-
-|-----------19p17----17--19-17-|-7-7-------7----------------7---7---------|-
-|-----------------19------------|------------------------------------------|-
-|-------------------------------|------------------------------------------|-
Not sure here

-|-----------|------------|-------------------------|-------------------------
-|-----------|------------|-------------------------|-------------------------
-|-----------|------------|-------------------------|-------------------------
-|-10-10--10-|------------|-------------------------|-------------------------
-|-10-10--10-|------------|-------------------------|-------------------------
-|-10-10--10-|------------|-10-10-10-10-10-10-10-10-|-------------------------
Last chords (feedback)

Ďalšie piesne z albumu

Go

Pearl Jam

Animal

Pearl Jam

Daughter

Pearl Jam

Glorified G

Pearl Jam

Dissident

Pearl Jam

W.M.A.

Pearl Jam

Blood

Pearl Jam

Rearviewmirror

Pearl Jam

Rats

Pearl Jam

Indifference

Pearl Jam

Novinky v katalógu

Najpopulárnejšie piesne interpreta

Yellow Ledbetter

Pearl Jam

Jeremy

Pearl Jam

Just Breathe

Pearl Jam

Black

Pearl Jam

The End

Pearl Jam

Unthought Known

Pearl Jam

Amongst The Waves

Pearl Jam

Alive

Pearl Jam

Got Some

Pearl Jam

Akordy

C C# D D# Es E F F# G G# As A A# B H 

Najčítanejšie