Pearl Jam: Akordy k piesni W.M.A.

Upraviť pieseň
Interpret: Pearl Jam

Dĺžka piesne: 05:59



Pearl Jam - W.M.A. (akordy)

Transpozícia ( -2 -1 0 +1 +2 )



-|---------------|------------------------|-----------------------------------
-|---------------|------------------------|-----------------------------------
-|---------------|-5vvvv--5vvvv--5vvvv----|-----------------------------------
-|---------------|------------------------|-----------------------------------
-|---------------|------------------------|-----------------------------------
-|---------------|------------------------|-----------------------------------
Drum/Bass intro G2 0:15 (volume swells)

-|-------------------|-----------------------------|--------------------------
-|-------------------|-----------------------------|--------------------------
-|-x-x-x--x-x-x-x----|-----5-----------------------|--------------------------
-|-x-x-x--x-x-x-x----|-5h7---7-5-7--5h7--5h7-------|--------------------------
-|-x-x-x--x-x-x-x----|-----------------------------|--------------------------
-|-------------------|-----------------------------|--------------------------
Pre-Verse, G2(0:35) Pre-Verse, Verse, G1(0:45) 20x

-|--------7vvvv----5vv-7vv-5vv----|-------------------------------------------
-|-5vvvv--------------------------|-------------------------------------------
-|--------------------------------|-------------------------------------------
-|--------------------------------|-------------------------------------------
-|--------------------------------|-------------------------------------------
-|--------------------------------|-------------------------------------------
Verse, G2 (1:15)(volume swells)

-|------5--------------|-------------------------|----------------------------
-|------5--------------|-------------------------|----------------------------
-|---------------------|-9---x-/x-------------|----------------------------
-|---------------------|-7---x-/x--x-x--------|----------------------------
-|---------------------|--------------x-x--------|----------------------------
-|---------------------|-------------------------|----------------------------
Interlude(1:30)G1 8x G2 noises, scrapes, etc

-|-------------------------|------------------------------------------------|-
-|-------------------------|------------------------------------------------|-
-|------5------------------|-------7----------------------------------------|-
-|--5h7---7-5-7--5h7--5h7--|-5h7-----5h7--x-x-x-x-5h7--7--x-x--x--5h7--7--|-
-|-------------------------|------------------------------------------------|-
-|-------------------------|------------------------------------------------|-
G1 (1:47) 26x G2(1:47)

-|--------------------5-----15--15-15------------|-15-/------|----------------
-|--7---------------------------------x-x-------|-15-/------|----------------
-|--7---------------------------------x-x--x---|--/--------|----------------
-|--7-----x-x-x-x--------------------------x---|--/--------|----------------
-|--/---------------------------------------x---|-----------|----------------
-|--/--------------------------------------------|-----------|----------------
trem.pick

Ďalšie piesne z albumu

Go

Pearl Jam

Animal

Pearl Jam

Daughter

Pearl Jam

Glorified G

Pearl Jam

Dissident

Pearl Jam

Blood

Pearl Jam

Rearviewmirror

Pearl Jam

Rats

Pearl Jam

Leash

Pearl Jam

Indifference

Pearl Jam

Novinky v katalógu

Najpopulárnejšie piesne interpreta

Yellow Ledbetter

Pearl Jam

Jeremy

Pearl Jam

Just Breathe

Pearl Jam

Black

Pearl Jam

The End

Pearl Jam

Unthought Known

Pearl Jam

Amongst The Waves

Pearl Jam

Alive

Pearl Jam

Got Some

Pearl Jam

Akordy

C C# D D# Es E F F# G G# As A A# B H 

Najčítanejšie