Peha: Akordy k piesni Príliš veľa sentimentu

Upraviť pieseň
Interpret: Peha


Peha - Príliš veľa sentimentu (akordy)

Transpozícia ( -2 -1 0 +1 +2 )


Príliš veľa sentimentu

Intro: G, Emi, Hmi, C,
G, Emi, Hmi, C,
G, Emi, Hmi, C

GVo všetkom čím Emiprechádzam
je až Hmipríliš veľa Csentimentu
Gzhováram sa s Emiozvenou
len ju Hmimôžem v dave Amistretnúť

REF.: DRaz mi Cniekto poveGdal
nechaj Amiveci plynúť C, G, D
všetko Cčo sa večné Gzdá
prejde Amiza pár minút C

Intro: G, Emi, Hmi, C,
G, Emi, Hmi, C

Kam sa hnem tam všade je
snáď až príliš veľa sentimentu
nečakám že precitnem
že ma vyhlásia za svätú

REF.: Raz mi niekto povedal
nechaj věci plynúť
všetko čo sa večné zdá
prejde za pár minút

SÓLO:SÓLO:
E-------|-8--8--8--7-------------|------------------------|-8--8--8--7-------------|
H-8-10-|-------------------8-----|-8--8--8--7------------|-------------------7-----|
G-------|-------------------------|-------------------7--7-|-------------------------|
D-------|-------------------------|-------------------------|-------------------------|
A-------|-------------------------|-------------------------|-------------------------|
E-------|-------------------------|-------------------------|-------------------------|

E-------------------------|-8--8--8--7-------------|------------------------|
H-7--8-----------8--10--|-------------------8-----|-8--8--8--7------------|
G-------------------------|-------------------------|-------------------7--7-|
D-------------------------|-------------------------|-------------------------|
A-------------------------|-------------------------|-------------------------|
E-------------------------|-------------------------|-------------------------|

E-8--8--8--7-------------|-------------------------|
H-------------------7-----|-8----------------------|
G-------------------------|-------------------------|
D-------------------------|-------------------------|
A-------------------------|-------------------------|
E-------------------------|-------------------------|


REF.: Raz mi niekto povedal
nechaj věci plynúť
všetko čo sa večné zdá
prejde za pár minút

REF.: DRaz mi Cniekto poveGdal
nechaj Amiveci plynúť C, G, D
všetko Cčo sa večné Gzdá
prejde Amiza pár minút C, G

Autorem akordových značek a tabulátorů je Tomáš Pešl.

Ďalšie piesne z albumu

Novinky v katalógu

Najpopulárnejšie piesne interpreta

Akordy

C C# D D# Es E F F# G G# As A A# B H 

Najčítanejšie