Queen: Akordy k piesni Another One Bites the Dust

Upraviť pieseň
Interpret: Queen


Queen - Another One Bites the Dust (akordy)

Transpozícia ( -2 -1 0 +1 +2 )


Another One Bites The Dust
Words and music by John Deacon
* . . . * . . . * . . . * . . .
|-----------------------------------------------------------------|
|-----------------------------------------------------------------|
|-----------------------------------------------------------------|
530---0---0------00-0-3--05-----530---0---0------00-0-3--05-------|


* . . . * . . . * . . . * . . . * . . . * . . .
|-------------------------------------------------------------------------------------------------|
|-------------------------------------------------------------------------------------------------|
|-------------------------------------------------------------------------------------------------|
|-0---0---0------00-0-3--05-------0---0---0------00-0-3--05-------0---0---0------00-0-3--05-------|


Verse:
* . . . * . . . * . . . * . . .
|-----------------------------------------------------------------|
|-----------------------------------------------------------------|
|-----------------------------------------------------------------|
|-0---0---0------00-0-3--05-------0---0---0------00-0-3--05-------|


* . . . * . . . * . . . * . . .
|-----------------------------------------------------------------|
|----------5-------------------------------5----------------------|
|-3-3--3-45-------3-3--3-45-------3-3--3-45-----------------------|
|-------------3---------------3---------------3---5-5--5-67----3--|


Chorus:
* . . . * . . . * . . . * . . .
|-----------------------------------------------------------------|
|-----------------------------------------------------------------|
|-----------------------------------------------------------------|
|-0---0---0------00-0-3--05-------0---0---0------00-0-3--05-------|

* . . . * . . . * . . . * . . .
|-----------------------------------------------------------------|
|-----------------------------------------------------------------|
|-----------------------------------------------------------------|
|-0---0---0------00-0-3--05-------2----7-65-5-5---2-----------3---|



* . . . * . . . * . . . * . . .
|-----------------------------------------------------------------|
|-----------------------------------------------------------------|
|-----------------------------------------------------------------|
|-0---0---0------00-0-3--05-------0---0---0------00-0-3--05-----530


Verse:
* . . . * . . . * . . . * . . .
|-----------------------------------------------------------------|
|-----------------------------------------------------------------|
|-----------------------------------------------------------------|
530---0---0------00-0-3--05-------0---0---0------00-0-3--05-------|

* . . . * . . . * . . . * . . .
|-----------------------------------------------------------------|
|----------5-------------------------------5----------------------|
|-3-3--3-45-------3-3--3-45-------3-3--3-45-----------------------|
|-------------3---------------3---------------3---5-5--5-67-------|


Chorus:
* . . . * . . . * . . . * . . .
|-----------------------------------------------------------------|
|-----------------------------------------------------------------|
|-----------------------------------------------------------------|
|-0---0---0------00-0-3--05-------0---0---0------00-0-3--05-----530

* . . . * . . . * . . . * . . . *
|-------------------------------------------------------------------|
|-------------------------------------------------------------------|
|-------------------------------------------------------------------|
530---0---0------00-0-3--05-------2----7-65-5-5---2-----------3---0-|


2:29
* . . . * . . . * . . . * . . .
|-----------------------------------------------------------------|
|-----------------------------------------------------------------|
|-----------------------------------------------------------------|
530---0---0------00-0-3--05-------0---0---0------00-0-3--05-------|


Verse:
* . . . * . . . * . . . * . . .
|-----------------------------------------------------------------|
|-----------------------------------------------------------------|
|-----------------------------------------------------------------|
|-0---0---0------00-0-3--05-----530---0---0------00-0-3--05-------|


* . . . * . . . * . . . * . . .
|-----------------------------------------------------------------|
|----------5-------------------------------5----------------------|
|-3-3--3-45-------3-3--3-45-------3-3--3-45-----------------------|
|-------------3---------------3---------------3---5-5--5-67----3--|


Chorus:
* . . . * . . . * . . . * . . .
|-----------------------------------------------------------------|
|-----------------------------------------------------------------|
|-----------------------------------------------------------------|
|-0---0---0------00-0-3--05-------0---0---0------00-0-3--05-----530

* . . . * . . . * . . . * . . .
|-----------------------------------------------------------------|
|-----------------------------------------------------------------|
|-----------------------------------------------------------------|
530---0---0------00-0-3--05-------2----7-65-5-5---2-----------3---|


Outro:
* . . . * . . . * . . . * . . .
|-----------------------------------------------------------------|
|-----------------------------------------------------------------|
|-----------------------------------------------------------------|
|-0---0---0------00-0-3--05-----530---0---0------00-0-3--05-------|

* . . . * . . . * . . . * . . .
|-----------------------------------------------------------------|
|----------5-------------------------------5----------------------|
|-3-3--3-45-------3-3--3-45-------3-3--3-45-----------------------|
|-------------3---------------3---------------3---5-5--5-67-------|

Ďalšie piesne z albumu

Novinky v katalógu

Najpopulárnejšie piesne interpreta

Akordy

C C# D D# Es E F F# G G# As A A# B H 

Najčítanejšie