System of a Down: Akordy k piesni Radio/Video

Upraviť pieseň
Interpret: System of a Down

Dĺžka piesne: 04:09



System of a Down - Radio/Video (akordy)

Transpozícia ( -2 -1 0 +1 +2 )


Intro:

e|------------------------------------------------------------------------|
H|----10-----12-----------14----14----14--15p14------------14p------------|
G|-------xxx------------------------------------15--15--15-----13--13--13-|
D|-------xxx--------------------------------------------------------------|
A|-9-----xxx----10-10/12-----12----12-------------12--12---------12--12---|
E|------------------------------------------------------------------------|

e|----------------------------------------------------------------------------|
H|----10------12-----------14----14----14--15p14------------------------------|
G|-----------------------------------------------16--16--16-------------------|
D|----------------------------------------------------------------------------|
A|-99---99/10---10-10/12-----12----12--------------12--12----16-15-13-11-10-9-|
E|----------------------------------------------------------------------------|

e|------------------------------------------------------------------------|
H|----10-----12-----------14----14----14--15p14------------14p------------|
G|-------xxx------------------------------------15--15--15-----13--13--13-|
D|-------xxx--------------------------------------------------------------|
A|-9-----xxx----10-10/12-----12----12-------------12--12---------12--12---|
E|------------------------------------------------------------------------|

e|---------------------------------------------------------------------------|
H|----10------12-----------14----14----14--15p14-----------------------------|
G|-----------------------------------------------16--16--16------------------|
D|---------------------------------------------------------------------------|
A|-99---99/10---10-10/12-----12----12--------------12--12----16-15-13-11-10--|
E|---------------------------------------------------------------------------|

hey man look at me rocking now im on the radio
e|-----------------------------------------|
H|--------33333333--55555555555555---------|
G|--------33333333--55555555555555---------|
D|-44--4--33333333--55555555555555---------|
A|-44--4--11111111--33333333333333---------|
E|-22--6-----------------------------------|


hey man look at me rocking now im on the video
e|-----------------------------------------|
H|--------33333333-666666666666666---------|
G|--------33333333-666666666666666---------|
D|-44--4--33333333-666666666666666---------|
A|-44--4--11111111-444444444444444---------|
E|-22--6-----------------------------------|


with danny and lisa...
e|----------------------|
H|-4--------------------|
G|-4--5--4--3--2--------|
D|-4--5--4--3--2--------|
A|-6--5--4--3--2--------|
E|----------------------|


they take me away from....the strangest place of...
e|-------------------1-1-1-1-1-1-1-1--3-3-3-3-3-3-5-3--|
H|--3-3-3-3-3-3-3-3--2-2-2-2-2-2-2-2--4-3-4-3-4-3-4-3--|
G|--4-3-4-3-4-3-4-3--3-3-3-3-3-3-3-3--5-3-5-3-5-3-5-3--|
D|--5-3-5-3-5-3-5-3------------------------------------|
A|-----------------------------------------------------|
E|-----------------------------------------------------|


(serj and daron harmonizing) "sweet danny and lisa"...
e|------------------------------------------------------|
H|---------------5/6--5----------------------5/7--5-----|
G|-44--2--4/5--3--------6--5---44--2--4/5--3--------7--5|
D|------------------------------------------------------|
A|------------------------------------------------------|
E|------------------------------------------------------|


hey man look at me rockin now im on the radio!!!!
e|---5-------7-------9--9--9-------------------------|
H|-----------------------------666666666666----------|
G|-----------------------------666666666666----------|
D|-4---44/55---5-5/7--7--7-----666666666666----------|
A|-----------------------------444444444444----------|
E|---------------------------------------------------|


hey man look at me rocking now im on the video!!!!
e|---5-------7-------9--9--9-------------------------|
H|-----------------------------666666666666----------|
G|-----------------------------666666666666--5-4-3-2-|
D|-4---44/55---5-5/7--7--7-----666666666666--5-4-3-2-|
A|-----------------------------444444444444--5-4-3-2-|
E|---------------------------------------------------|


they take me away from....
e|--333-3-------------------|
H|--444-3-------------------|
G|--555-3-------------------|
D|--------------------------|
A|--------------------------|
E|--------------------------|

Ďalšie piesne z albumu

B.Y.O.B.

System of a Down

Revenga

System of a Down

Cigaro

System of a Down

Violent Pornography

System of a Down

Question!

System of a Down

Sad Statue

System of a Down

Old School Hollywood

System of a Down

Lost in Hollywood

System of a Down

Soldier Side - Intro

System of a Down

Novinky v katalógu

Najpopulárnejšie piesne interpreta

Chop Suey!

System of a Down

Atwa

System of a Down

Toxicity

System of a Down

Aerials

System of a Down

Lonely Day

System of a Down

X

System of a Down

Soldier Side

System of a Down

B.Y.O.B.

System of a Down

P.L.U.C.K.

System of a Down

Sugar

System of a Down

Akordy

C C# D D# Es E F F# G G# As A A# B H 

Najčítanejšie