Tublatanka: Akordy k piesni Znova sám v uliciach

Upraviť pieseň
Interpret: Tublatanka


Tublatanka - Znova sám v uliciach (akordy)

Transpozícia ( -2 -1 0 +1 +2 )




|---------------------------------------------------------------------|
|---------------------------------------------------------------------|
|----2-2-----------------2-2-4-5--------2-2-----------------2-5-4-----|
|----2-2-----------------2-2-4-5--------2-2-----------------2-5-4-5---|
|----0-0—(medzitým basa)-0-0-2-3--------0-0-(medzitým basa)-0-3-2-5---|
|-----------------------------------------------------------------3---|

|-----------------------------------------------------------------------|
|-----------------------------------------------------------------------|
|-----------------------------------------------------------------------|
|----2--------------------2-2-4-5--------2-------------------2-5-4-5----|
|----0-0-2-0-3-0-5-3------0-0-2-3--------0-0-2-0-3-0-5-3-----0-3-2-5----|
|------------------------------------------------------------------3----|



1. AmiRoky sa túlam Fpo nocGiach Amia veľmi dobre už FvieGm,
Amiže všetko čo mám Cza seDbou Enikdy neoľutuFjemG.

AmiVšetko je v Cporiadku, Dnič sa nemeFní.
AmiVšetko je v Cporiadku v tom Dšťastnom znameFní.

EKeď ma aj Aminiečo trápi, Ekeď som zúfaAmilý.
EVždy ma to Amizase zláka Dnaspäť do uElíc.

Ref:
Znova Asám v uliDciach
v nohách Cstarý známy Dsmer.
Znova Asám v uliDciach
priamo Caž do tvojich Ddvier.



|---------------------------------------------------------------------|
|---------------------------------------------------------------------|
|----2-2-----------------2-2-4-5--------2-2-----------------2-5-4-----|
|----2-2-----------------2-2-4-5--------2-2-----------------2-5-4-5---|
|----0-0—(medzitým basa)-0-0-2-3--------0-0-(medzitým basa)-0-3-2-5---|
|-----------------------------------------------------------------3---|

|-----------------------------------------------------------------------|
|-----------------------------------------------------------------------|
|-----------------------------------------------------------------------|
|----2--------------------2-2-4-5--------2-------------------2-5-4-5----|
|----0-0-2-0-3-0-5-3------0-0-2-3--------0-0-2-0-3-0-5-3-----0-3-2-5----|
|------------------------------------------------------------------3----|




1. AmiSpoločné sny a FtajomGstvá
Amia časy keď som bol FzlýG
Amipo všetkých tvojich CnávraDtoch
Enás už nič nerozdeFG.

AmiVšetko je v Cporiadku, Dnič sa nemeFní.
AmiVšetko je v Cporiadku v tom Dšťastnom znameFní.

EKeď ma aj Aminiečo trápi, Ekeď som zúfaAmilý.
EVždy ma to Amizase zláka Dnaspäť do uElíc.

Ref:
Znova Asám v uliDciach
v nohách Cstarý známy Dsmer.
Znova Asám v uliDciach
priamo Caž do tvojich Ddvier.

Už mi Achýbaš, už mi Gchýbaš, už mi Fchýbaš
strašne Esus4chýEbaš!
Už mi Achýbaš, už mi Gchýbaš, už mi Fchýbaš
strašne Esus4chýEbaš!

Sólo:

Ref:
Znova Asám v uliDciach
v nohách Cstarý známy Dsmer.
Znova Asám v uliDciach
priamo Caž do tvojich Ddvier.


|-----------------------------------------------------------------------|
|-----------------------------------------------------------------------|
|-----------------------------------------------------------------------|
|----2--------------------2-2-4-5--------2-------------------2-5-4-5----|
|----0-0-2-0-3-0-5-3------0-0-2-3--------0-0-2-0-3-0-5-3-----0-3-2-5----|
|------------------------------------------------------------------3----|





Ďalšie piesne z albumu

Spálená láska

Tublatanka

Volanie divočiny

Tublatanka

Viem čo chceš

Tublatanka

Anjel strážny

Tublatanka

Novinky v katalógu

Najpopulárnejšie piesne interpreta

Dnes

Tublatanka

Matka

Tublatanka

Loď do neznáma

Tublatanka

Pravda víťazí

Tublatanka

Šlabikár

Tublatanka

Priateľ

Tublatanka

Akordy

C C# D D# Es E F F# G G# As A A# B H 

Najčítanejšie