Wheatus: Akordy k piesni Teenage Dirtbag

Upraviť pieseň
Interpret: Wheatus

Dĺžka piesne: 03:59



Wheatus - Teenage Dirtbag (akordy)

Transpozícia ( -2 -1 0 +1 +2 )


Her name is Noel,


|-0-------------0----------|--0----------0------------|
|-0-------------0----------|--0----------0------------|
|-1-------------4----------|--1----------2------------|
|-2-------------4----------|--2----------2------------|
|-2-------------2----------|--2----------0------------|
|-0-------------2----------|--0----------0------------|


I have a dream about her,she rings my bell,I got gym class in half an hour,oh how she rocks in keds and tube socks,but she doesn´t know who I am,


|--0--------------0--------|--0-------------0---------|
|--0--------------0--------|--0-------------0---------|
|--4--------------2--------|--4-------------4---------|
|--2--------------2--------|--4-------------4---------|
|--4--------------0--------|--2-------------2---------|
|--0--------------0--------|--2-------------2---------|



and she doesn´t give a damn about me.*

CHorus:
Cause I´m just a teenage dirtbag baby.


(distortion) Im just a teenage... (4x)
|---------x--------x-------|--------------------------|
|---------x--------x-------|--------------------------|
|---------x--2--2--x-4--4--|--------1-----------------|
|--2--2---x--2--2--x-4--4--|--------------4-----------|
|--2--2---x--0--0--x-2--2--|--2--4-----2--------------|
|--0--0---x--------x-------|--------------------------|



Yeah I´m just a teenage dirtbag baby.Listen ti iron maiden baby with me.Ooohoo hoo hooooooo*
Her boyfriendś a dick,he brings a gun to school and he´d simly kick my ass if he knew the truth,he lives on my block,he drives and I rock,but ho doesn´t know who I am and he doesn´t give a damn about me.*

CHorus:Oh yeah,dirtbag,no,she,doesn´t know


|--------------------------|--------------------------|
|--------------------------|--------------------------|
|------------2---2---------|-------1------------------| (2x)
|---2---2----2---2-(3x)----|----------4--2--2----4--2-|
|---2---2----0---0---------|-2--4-------------2-------|
|---0---0------------------|--------------------------|



what she missing.
Oh yeah,dirtbag,no,she doesn´t know what sheś missing.*
Man I feel like mold,itś prom night and I am lonely,lo and behold,
sheś walking over to me,this must be fake,
my lip starts to shake,how does she know who I am,
and why does she give a damn about......*

I´ve got two tickets to iron maiden baby,
come with me friday,don´t say maby,
I´m just a teenage dirtbag baby like you.......

Ooohoo hoo hooooooo*

Oh yeah,dirtbag,no,
she doesn´t know what sheś missing.
Oh yeah,dirtbag,no,
she doesn´t know what sheś missing.*


|-------------------x--0---|
|-------------------x--0---|
|-------------------x--1---|
|-7---6---4---6---4-x--2---|
|-7---6---4---6---4-x--2---|
|-5---4---2---4---2-x--0---|


Novinky v katalógu

Najpopulárnejšie piesne interpreta

Teenage Dirtbag

Wheatus

BMX Bandits

Wheatus

Randall

Wheatus

Anyway

Wheatus

Freak On

Wheatus

Akordy

C C# D D# Es E F F# G G# As A A# B H 

Najčítanejšie